>
 >
Its Over Now

Its Over Now Guitar Tabs

Busted - Its Over Now chords, tabs, tablatures, lyrics

Guitar lessons | Add/correct | Request | Top 50 tabs Artists:  A B C D E F G H I J K L M N O P Q R S T U V W X Y Z 0-9

Its Over Now Guitar Tabs – Busted

CD, Sheet music, Poster

Do you like Its Over Now? Share with your friends now
ChordsTabsUkulele
Itís Over Now Ė Busted

Itís slightly complicated as they alternate between E, A, B and C#m played normally, and like this:

E2  A2  B2  C#m2   (adding the 2 is my way of differentiating)
0   0   0    0
0   0   0    0
9   2   4    6
9   2   4    6
7   0   2    4
x   x   x    x

Also used
E3
0
0
8
9
7
x


Intro: (basic chords) E, A, E,  A

      Essentially E                        Essentially A
--------------------------------------------------------------------|
--------------------------------------------------------------------|
--------9-8----8-9------9-8---8-9-----------------------------------|
-----9-------9--------9-----9----------7-6---6-7-6---6-7-9-7-6------|
--7-----------------7----------------7-----7------------------------|
-----------------------------------5---------------5----------------|

Play twice for the Intro then repeat this sequence for the whole of verse 1 until the C#m chord.

Verse 1

E                     A
Here we go take a bow
A                      E
Because we're over now
E                         A
You were not there for me
A
When I needed you and honestly
  C#m2     B2        A2
I think I loved you more
A2
If that's possible
  C#m2     B2       A2
I Think I loved you more

Then the electric comes in on A Bar chord.

Chorus:
E           B              A
It's over now and I can't save you
E               B              A
Some things are better left unsaid
E            B          A
And all the promises I made were so stupid
C#m               B           A
And mabe we'll be able to be friends
A
If that's Possible

Verse 2:
E2           E3             A Bar Chord
Two days gone I'm alright
A
but you can't sleep at night
E2        E3               A Bar Chord
What is it you don't like
A
And I'm happy now
A                        C#m2
I was playing with your head
          B2             A2
And I closed the door
A2                   C#m2
I was Kidding when I said
  B2        A2
I Loved You more

Enter electric playing A Bar Chord

Chorus:
E           B              A
It's over now and I can't save you
E               B             A
Some things are better left unsaid
E           B          A
And all the promises I made were so stupid
C#m               B           A
And mabe we'll be able to be friends
A
If that's Possible

Middle Bit/lead (if you wish to call it that):
Chords: C#m, B, E, B, C#m, B, E, B

-4---4---4---4---7---7--7---7---7---7---5---4---4---4---5---4-----|
---5---5---5---5---5---5--5---5---5---5---5---5---5---5---5---5---|
------------------------------------------------------------------|
------------------------------------------------------------------|
------------------------------------------------------------------|
------------------------------------------------------------------|

---4---4---4---4---4---4---4---4-s7777-7777-s7777-777-----------------|
-5---5---5---5---5---5---5---5---s7777-7777-s7777-777-7-8-7-----------|
----------------------------------------------------------------------|
----------------------------------------------------------------------|
----------------------------------------------------------------------|
----------------------------------------------------------------------|


Chorus:
E2         B2             A Bar Chord
It's over now and I can't save you
E               B             A
Some things are better left unsaid
E           B          A
And all the promises I made were so stupid
C#m                 B          A
And maybe we'll be able to be friends
A
If that's Possible

Back to the intro riff for the outtro

      Essentially E                        Essentially A
--------------------------------------------------------------------|
--------------------------------------------------------------------|
--------9-8----8-9------9-8---8-9-----------------------------------|
-----9-------9--------9-----9----------7-6---6-7-6---6-7-9-7-6------|
--7-----------------7----------------7-----7------------------------|
-----------------------------------5---------------5----------------|

...along with the words

E                       A
If that's possible
A                       E
If that's possible
E                      A
If that's possible

A         E2 (one lingering strum)
It's over now.

Enjoy!!





Comments


Popular Busted tabs & chords
All The Way Chords
Cant Break Thru 2 Chords
Loser Kid 1 Chords
Sleeping With The Light On Chords
Sleeping With The Light On 3 Chords
Whos David 4 Chords
Why Chords
Cant Break Through Ukulele
Dawsons Geek Ukulele
Mrs Robinson Ukulele


Song lyrics



↑ Back to top | Tablatures and chords are parodies/interpretations of the original songs. You may use it for private study, scholarship, research or language learning purposes only
© 2014 AZChords.com Contact us | Privacy policy | DMCA | Add/correct tabs | Request tabs | Top 50 tabs