>
 >
Fun Fun Fun

Fun Fun Fun Guitar Tabs

Busted - Fun Fun Fun chords, tabs, tablatures, lyrics

Guitar lessons | Add/correct | Request | Top 50 tabs Artists:  A B C D E F G H I J K L M N O P Q R S T U V W X Y Z 0-9

Fun Fun Fun Guitar Tabs – Busted

CD, Sheet music, Poster

Do you like Fun Fun Fun? Share with your friends now
ChordsTabsUkulele

Tuning: standard

intro
e|-----------|-10-10-10-10-10-10-10-10-|-10-13-10------------------|--------|
B|-----10-12-|-10-10-10-10-10-10-10-10-|-10-12-10-12-10------------|--------|
G|--11-------|-------------------------|----------12-10----/-11-11-|--------|
D|-----------|-------------------------|----------------12-/-12-12-|--------|
A|-----------|-------------------------|---------------------------|--------|
E|-----------|-------------------------|---------------------------|--------|

e|---------------------------|-------------------------|-----------------|--|
B|---------------------------|----10-10----10-10-------|------10----10---|--|
G|--/11-11-11/11-11-11/11-11-|-11-10-10----10-10----10-|-12b---12b---12b-|--|
D|--/12-12-12/12-12-12/12-12-|-12-------12-------12----|-----------------|--|
A|---------------------------|-------------------------|-----------------|--|
E|---------------------------|-------------------------|-----------------|--|

e|---------------------|-------------------|-------------------10-----|-----|
B|--10----10----10-10--|-------10----10----|--10----10--10--10----10--|-----|
G|---12b---12b---------|--12b---12b---12b--|---12b--------------------|-----|
D|---------------------|-------------------|--------------------------|-----|
A|---------------------|-------------------|--------------------------|-----|
E|---------------------|-------------------|--------------------------|-----|

e|--13-12-10----10-----------|------------------------|---------------------|
B|-----------13-------10-----|--10-12-12--12-10---10--|-----12----10--12-10-|
G|-----------------12-10-----|--10-12-12--12-10---11--|-----12----11--12-11-|
D|-----------------------12--|------------------------|--12----12-----------|
A|---------------------------|------------------------|---------------------|
E|---------------------------|------------------------|---------------------|

verse

     well she got her daddys car and she  cruised through the hamburger
e|-----------|---------------------------|----------------------------------|
B|-----------|---------------------------|----------------------------------|
G|-----------|--7-7-7-7-7-7-7-7-7-7-7-7--|--7-7-7-7-7-7-7-7-7-7-7-7-7-7-----|
D|--7-7-7-7--|--7-7-7-7-7-7-7-7-7-7-7-7--|--7-7-7-7-7-7-7-7-7-7-7-7-7-7-----|
A|--7-7-7-5--|--5-5-5-5-5-5-5-5-5-5-5-5--|--5-5-5-5-5-5-5-5-5-5-5-5-5-5-----|
E|--5-5-5-5--|---------------------------|----------------------------------|

   stand now                        seems she forgot about the library like
e|---------------------------------|---------------------------------------|
B|---------------------------------|---------------------------------------|
G|---------------------------------|-----------7-7-7-7-7-7-7-7-7-7-7-7-7-7-|
D|-5-5-5-5-5-5-5-5-5-5-5-5-5-5-5-5-|-5-5-5-5-5-7-7-7-7-7-7-7-7-7-7-7-7-7-7-|
A|-5-5-5-5-5-5-5-5-5-5-5-5-5-5-5-5-|-5-5-5-5-5-5-5-5-5-5-5-5-5-5-5-5-5-5-5-|
E|-3-3-3-3-3-3-3-3-3-3-3-3-3-3-3-3-|-3-3-3-3-3-----------------------------|

   she told her old man now                   And with the radio blastin'
e|---------------------------|---------------|-----------------------------|
B|---------------------------|---------------|-----------------------------|
G|-7-7-7-7-7-7-7-7-7---------|---------------|-------------7-7-7-7-7-7-7-7-|
D|-7-7-7-7-7-7-7-7-7-7-7-7-7-|-7-7-7-7-7-7-7-|-7-7-7-7-7-7-7-7-7-7-7-7-7-7-|
A|-5-5-5-5-5-5-5-5-5-7-7-7-7-|-7-7-7-7-7-7-7-|-7-7-7-7-7-7-5-5-5-5-5-5-5-5-|
E|-------------------5-5-5-5-|-5-5-5-5-5-5-5-|-5-5-5-5-5-5-----------------|

   goes cruisin' just as fast as she can, now
e|--------------------------------------------------------------------------|
B|--------------------------------------------------------------------------|
G|-7-7-7-7-7-7-7-7-7-7-7-7-7-7-7-7-7-7-7------------------------------------|
D|-7-7-7-7-7-7-7-7-7-7-7-7-7-7-7-7-7-7-7--5-5-5-5-5-5-5-5-------------------|
A|-5-5-5-5-5-5-5-5-5-5-5-5-5-5-5-5-5-5-5--5-5-5-5-5-5-5-5-------------------|
E|----------------------------------------3-3-3-3-3-3-3-3-------------------|

  Chorus
        And she'll have fun, fun, fun till her daddy takes the t-bird away
e|---------------------------------------------------------------------------|
B|---------------------------------------------------------------------------|
G|---------------------7-7-7-7-7-7-7-7-7-7-7-7-------------------------------|
D|-5-5-5-5-5-5-5-5-5-5-7-7-7-7-7-7-7-7-7-7-7-7-5-5-5-5-5-5-7-7-7-7-7-7-7-7-7-|
A|-5-5-5-5-5-5-5-5-5-5-5-5-5-5-5-5-5-5-5-5-5-5-5-5-5-5-5-5-7-7-7-7-7-7-7-7-7-|
E|-3-3-3-3-3-3-3-3-3-3-------------------------3-3-3-3-3-3-5-5-5-5-5-5-5-5-5-|

verse 2, then chorus again

Solo

e|-----5-5-8-|-5-------------------|---------------------|----------------|
B|-----------|--8-5--------------7-|--7---5--------------|----------------|
G|-----------|------7-5---5-7------|--7---5--------------|---5--7-7b--7b--|
D|-----------|-----------------7---|---------7--5----5-7-|-7--------------|
A|-----------|---------------------|---------------7-----|----------------|
E|-----------|---------------------|---------------------|----------------|

e|-------------5---5--|------|
B|--------------------|------|
G|--7b---5------------|------|
D|----------7---------|------|
A|--------------------|------|
E|--------------------|------|

then verse 3 and chorus to fade

| /  slide up
|   slide down
| h  hammer-on
| p  pull-off
| ~  vibrato
| +  harmonic
| x  Mute note
| b  Bend





Comments


Popular Busted tabs & chords
Air Hostess 2 Chords
Crash And Burn Tabs
Crashed The Wedding Tabs
Crashed The Wedding 4 Tabs
Sleeping With The Light On 2 Tabs
Sleeping With The Light On 4 Tabs
Britney Ukulele
Cant Break Thru Ukulele
Crashed The Wedding Ukulele
Year 3000 2 Ukulele


Song lyrics



↑ Back to top | Tablatures and chords are parodies/interpretations of the original songs. You may use it for private study, scholarship, research or language learning purposes only
© 2014 AZChords.com Contact us | Privacy policy | DMCA | Add/correct tabs | Request tabs | Top 50 tabs