» » »

Fake Tabs (ver.2)

Artists:  A B C D E F G H I J K L M N O P Q R S T U V W X Y Z # 

Fake Tabs (ver.2)

Busted
Rating:
3/5 (3 votes)

Tabs too difficult? Try these video lessons and learn fast.
                (h)hammer on
(p)pull off
(*)palm mute

intro

  e---------------------------------------------|
  b---------------------------------------------|
  g--------5--------5-----------3-------3-------|
  d--3-3------3-2-------2-0-0------0-0------0---|
  a-------------------------------------------3-|
  E---------------------------------------------|

  e---------------------------------------------|
  b---------------------------------------------|
  g--------5-------5-----------3--3h5p----------|
  d---3-------3-2------2-0-0------------3h5p----|
  a---------------------------------------------|
  E---------------------------------------------|

  verse

  e---------------------------------------------|
  b---------------------------------------------|
  g-----------5-5-5-0--3-3-3-3-3-3-3-0----------| x2
  d--3-3-3-0--5-5-5-0--3-3-3-3-3-3-3-0----------|
  a--3-3-3-0--3-3-3-0--1-1-1-1-1-1-1-0----------|
  E--1-1-1-0------------------------------------|
   ************************************

  pre chorus

  e-----------------------------------------------------------------|
  b-----------------------------------------------------------------|
  g-------------------------------------------------------10-10-10--|
  d--7-7-7-7-7-7-7-7-8-8-8-8-8-8-8-8-7-7-7-7-7-7-7-7-8-8-8-*-*--*---|
  a--7-7-7-7-7-7-7-7-8-8-8-8-8-8-8-8-7-7-7-7-7-7-7-7-8-8-8-8-8--8---|
  E--5-5-5-5-5-5-5-5-6-6-6-6-6-6-6-6-5-5-5-5-5-5-5-5-6-6-6----------|
   *******************************************************

  chorus

  e---------------------------------|
  b---------------------------------|
  g-10-10-10-5-5-5-5-7-7-7-3-3-3-3--|
  d-10-10-10-5-5-5-5-7-7-7-3-3-3-3--|
  a-8--8--8--3-3-3-3-5-5-5-1-1-1-1--|
  E---------------------------------|

  e-----------------------------------|
  b-----------------------------------|
  g-----------------------------------|
  d-10-10-10-5-5-5-5-3-3-3-3-3-3-3-3--|
  a-8--8--8--5-5-5-5-3-3-3-3-3-3-3-3--|
  E-8--8--8--3-3-3-3-1-1-1-1-1-1-1-1--|

  e---------------------------------|
  b---------------------------------|
  g-10-10-10-5-5-5-5-7-7-7-3-3-3-3--|
  d-10-10-10-5-5-5-5-7-7-7-3-3-3-3--|
  a-8--8--8--3-3-3-3-5-5-5-1-1-1-1--|
  E---------------------------------|

  e--------------------------|
  b--------------------------|
  g-7-7-7-5-5-5-5-3-3-3-3-3--|
  d-7-7-7-5-5-5-5-3-3-3-3-3--|
  a-5-5-5-3-3-3-3-1-1-1-1-1--|
  E--------------------------|

  intro
  verse 2
  chorus

  and then
   (dont want to be a fake its quite uncanny......)
  e--------------------------------------|
  b--------------------------------------|
  g--------------------------------------|
  d-6-6-6-13-13-13-13-15-15-15-11-11-11--|
  a-6-6-6-13-13-13-13-15-15-15-11-11-11--|
  E-4-4-4-11-11-11-11-13-13-13-9--9--9---|

  e--------------------------------|
  b--------------------------------|
  g--------------------------------|
  d-6-6-6-13-13-13-13--15--13--11--|
  a-6-6-6-13-13-13-13--15--13--11--|
  E-4-4-4-11-11-11-11--13--11--9---|

  e--------------------------------------------------------|
  b--------------------------------------------------------|
  g--------------------------------------------------------|
  d-6-6-6-13-13-13-13--15--13--11--15--13--11--15--13--11--|
  a-6-6-6-13-13-13-13--15--13--11--15--13--11--15--13--11--|
  E-4-4-4-11-11-11-13--13--11--9---13--11--9---13--11--9---|


  after that

  e-----------------------------------------------------------------|
  b-----------------------------------------------------------------|
  g-9-9-9-9-9-9-9-9-9-9-9-9-9-9-9-9-7-7-7-7-7-7-7-7-7-7-7-7-7-7-7-7-|
  d-9-9-9-9-9-9-9-9-9-9-9-9-9-9-9-9-7-7-7-7-7-7-7-7-7-7-7-7-7-7-7-7-|
  a-7-7-7-7-7-7-7-7-6-6-6-6-6-6-6-6-5-5-5-5-5-5-5-5-5-5-5-5-5-5-5-5-|
  E-----------------------------------------------------------------|

  e----------------------------------------------------------------|
  b----------------------------------------------------------------|
  g-9-9-9-9-9-9-9-9-9-9-9-9-9-9-9-9-7-7-7-7-7-7-7-7-3-3-3-3-3-3-3--|
  d-9-9-9-9-9-9-9-9-9-9-9-9-9-9-9-9-7-7-7-7-7-7-7-7-3-3-3-3-3-3-3--|
  a-7-7-7-7-7-7-7-7-6-6-6-6-6-6-6-6-5-5-5-5-5-5-5-5-1-1-1-1-1-1-1--|
  E----------------------------------------------------------------|

  verse 3

  e-------------------------------------------------------------------|
  b-------------------------------------------------------------------|
  g-7-7-7-7-7-7-7-7-8-8-8-8-8-8-8-8-7-7-7-7-7-7-7-7-8-8-8-8-10-10-10--|
  d-7-7-7-7-7-7-7-7-8-8-8-8-8-8-8-8-7-7-7-7-7-7-7-7-8-8-8-8-*--*--*---|
  a-5-5-5-5-5-5-5-5-6-6-6-6-6-6-6-6-5-5-5-5-5-5-5-5-6-6-6-6-8--8--8---|
  E-------------------------------------------------------------------|

  play chorus x2

 outro

  e----
  b----
  g-3--
  d-3--
  a-1--
  E----

  lyrics

verse 1
  I cant believe what my gilfreind did today
  she screamed so loudly and then she turned away
  why did she ut me down to size
  she left me wondering can i do it right

chorus
  what am i gonna do now the games up
  cant get her off thats kinda rough
  she better not tell my mates today
  so baby tell me now do i need to measure
  coz im feeling under pressure
  im just hoping that the fear will go away
  dont wanna be a fake

verse 2
  i woke up in a sweat felt a disgrace
  she looked so beautiful love on her face
  feeling stupid all on my own
  put it down to experiance coz now iv grown

chorus
 and then

 dont wanna be a fake its quite uncanny
 coz my favourite film is when harry met sally
 but now wer'e finished theres no way that wer'e ever gonna be ok
 dont wanna be a fake how low can i go
 you might find me reading cosmo
 but when im finished you know that your gonna wanna
 be with me,gonna wanna be with me,gonna wanna be with me

 verse 3
  gotta girl on my sofa getting undressed
  gotta know can i believe her coz im feelin stressed

 chorus
  what am i gonna do my games up
  ive got the goods is that enough
  theres almost nothing left to say
  so wish me luck not gonna run
  the final countdown has begun
  not gonna see or hear them laughing in my face

  chorus


hope you enjoy this tab
            
Tabs too difficult? Try these video lessons and learn fast.


comments powered by Disqus
↑ Back to top | Tablatures and chords are parodies/interpretations of the original songs. You may use it for private study, scholarship, research or language learning purposes only