» » »

Fake Tabs (ver.1)

Artists:  A B C D E F G H I J K L M N O P Q R S T U V W X Y Z # 

Fake Tabs (ver.1)

Busted
Rating:
4/5 (7 votes)

Hard to play? Try these video lessons and learn fast.
                ----------------------------------------------------------------------------
                             FAKE-BUSTED
----------------------------------------------------------------------------


Tuning:normal

THIS TABS IS STRAIGHT OUT OF THE PRESENT FOR EVERYONE TAB BOOK SO IS CORRECT.  TIM RICHARDS

GUITAR 1 INTRO
E|-------------------------------------------------------------------|
B|=------------------------------------------------------------------|
G|----5-----5---------3-----3--------5-----5---------3---3H5-3-------|
D|3-3---3-2---2-0---0---0-0---0----3---3-2---2-0---0---0-------3H5-3-|
A|------------------------------3------------------------------------|
E|-------------------------------------------------------------------|

play GUITAR 2 riff over the top of GUITAR 1 for the intro

E|--------------------------------|
B|--------------------------------|
G|--------------------------------|
D|1-1-1---5-5-3---3-3-3-3-3-3-3-3-|    REPEAT 2 TIMES FOR INTRO
A|1-1-1-0-3-3-3-0-1-1-1-1-1-1-0-0-|
E|3-3-3---------------------------|
  PM.............................

GUITAR 1 VERSE

E|--------------------------------|
B|--------------------------------|
G|--------------------------------|
D|1-1-1---5-5-3---3-3-3-3-3-3-3-3-|    REPEAT 4 TIMES
A|1-1-1-0-3-3-3-0-1-1-1-1-1-1-0-0-|
E|3-3-3---------------------------|
  PM.............................


GUITAR 2 VERSE {PLAY OVER GUITAR 1}

E|----1---3--3-1----1----3--3--1------|
B|--1---1---------1---1---------------|
G|------------------------------------|     REPEAT 4 TIMES
D|3-----------------------------------|
A|------------------------------------|
E|------------------------------------|

GUITAR 1 PRE CHORUS

E|------------------------------------|
B|------------------------------------|
G|------------------------------------|    REPEAT 2 TIMES
D|------------------------------------|
A|7-7-7-7--7--7-7-7-8-8-8-8--8--8-8-8-|
E|5-5-5-5--5--5-5-5-6-6-6-6--6--6-6-6-|


GUITAR 2 PRE CHORUS (PLAY OVER GUITAR 1)

E|5-----------------6-----------------|
B|5-----------------6-----------------|
G|5-----------------7-----------------|
D|7-----------------8-----------------|    REPEAT 2
A|------------------------------------|
E|------------------------------------|


GUITAR 1 AND 2 CHORUS

E|---------------------------------------------------------|
B|---------------------------------------------------------|
G|-10--10--10-10-10--5--5--5-5-5--7--7--7-7-7--3--3--3-3-3-|
D|-10--10--10-10-10--5--5--5-5-5--7--7--7-7-7--3--3--3-3-3-|
A|-8---8---8--8--8---3--3--3-3-3--5--5--5-5-5--1--1--1-1-1-|
E|---------------------------------------------------------|


E|-------------------------------------------------------------|
B|-------------------------------------------------------------|
G|-10--10--10-10-10--5--5--5-5-5--3--3--3-3-3--3--3--3-3-3-----|
D|-10--10--10-10-10--5--5--5-5-5--3--3--3-3-3--3--3--3-3-3-----|
A|-8---8---8--8--8---3--3--3-3-3--1--1--1-1-1--3--3--3-3-3-----|
E|---------------------------------------------------------0-0-|

E|---------------------------------------------------------|
B|---------------------------------------------------------|
G|-10--10--10-10-10--5--5--5-5-5--7--7--7-7-7--3--3--3-3-3-|
D|-10--10--10-10-10--5--5--5-5-5--7--7--7-7-7--3--3--3-3-3-|
A|-8---8---8--8--8---3--3--3-3-3--5--5--5-5-5--1--1--1-1-1-|
E|---------------------------------------------------------|


E|-------------------------------------------------------------|
B|-------------------------------------------------------------|
G|-10--10--10-10-10--5--5--5-5-5--3--3--3-3-3--3--3--3-3-3-----|
D|-10--10--10-10-10--5--5--5-5-5--3--3--3-3-3--3--3--3-3-3-----|
A|-8---8---8--8--8---3--3--3-3-3--1--1--1-1-1--3--3--3-3-3-----|
E|---------------------------------------------------------0-0-|

REAPEAT THE WHOLE LOT AGAIN AND THESE ARE THE RIFF USED IN THE SONG SO JUST LISTEN TO 
RECORD AND CONTINUE THE ENDING.
            
Hard to play? Try these video lessons and learn fast. | Correct




comments powered by Disqus
↑ Back to top | Tablatures and chords are parodies/interpretations of the original songs. You may use it for private study, scholarship, research or language learning purposes only