» » »

Busted, Crashed The Wedding Tabs (ver.4)

Artists:  A B C D E F G H I J K L M N O P Q R S T U V W X Y Z # 

Crashed The Wedding Tabs (ver.4)

Busted Tabs
 Rating:
4/5 (8 votes)
Crashed The Wedding lessons Tabs too difficult? Try these video lessons and learn fast
                Standard Tuning!
PM: Palm Mute
H: Hammer

Intro (also played in chorus) :

E:----6-4-3---3------------|
B:--4-------4---4-4H6-4----|
G:-------------------------|
D:-------------------------|
A:-------------------------|
E:-------------------------|


E:-----------------------------------------------------------------------|
B:-----------------------------------------------------------------------|
G:------------------6-6-6-6-6-6-6-6-----------8-8-8-8--6-6-6-6-6-6-6-6---|
D:-6-6-6-6-6-6-6-6--6-6-6-6-6-6-6-6--6-6-6-6--8-8-8-8--6-6-6-6-6-6-6-6---|
A:-6-6-6-6-6-6-6-6--4-4-4-4-4-4-4-4--6-6-6-6--6-6-6-6--4-4-4-4-4-4-4-4---|
E:-4-4-4-4-4-4-4-4-------------------4-4-4-4-----------------------------|


Verse (Play 2 Times) :

E:-------------------------------------------------------------------------|
B:-------------------------------------------------------------------------|
G:------------------6-6-6-6-6-6-6-6--8-8-8-8-8-8-8-8--6-6-6-6-6-6-6-6------|
D:-6-6-6-6-6-6-6-6--6-6-6-6-6-6-6-6--8-8-8-8-8-8-8-8--4-4-4-4-6-6-6-6------|
A:-6-6-6-6-6-6-6-6--4-4-4-4-4-4-4-4--6-6-6-6-6-6-6-6--4-4-4-4-4-4-4-4------|
E:-4-4-4-4-4-4-4-4---------------------------------------------------------|
PM ******************************************************************


Pre Chorus:

E:---------------------|
B:---------------------|
G:-8-8-8--6-6-6--------|
D:-8-8-8--4-4-4--------|
A:-6-6-6--4-4-4--------|
E:---------------------|


Chorus :


E:--------------------------------------------------------------|
B:--------------------------------------------------------------|
G:------------------6-6-6-6-6-6-6-6-----------8-8-8-8--6-6-6-6--|
D:-6-6-6-6-6-6-6-6--6-6-6-6-6-6-6-6--3-3-3-3--8-8-8-8--6-6-6-6--|
A:-6-6-6-6-6-6-6-6--4-4-4-4-4-4-4-4--3-3-3-3--6-6-6-6--4-4-4-4--|
E:-4-4-4-4-4-4-4-4-------------------1-1-1-1--------------------|


E:-----------------------------------------------------------------------|
B:-----------------------------------------------------------------------|
G:------------------6-6-6-6-6-6-6-6-----------8-8-8-8--6-6-6-6-6-6-6-6---|
D:-6-6-6-6-6-6-6-6--6-6-6-6-6-6-6-6--6-6-6-6--8-8-8-8--6-6-6-6-6-6-6-6---|
A:-6-6-6-6-6-6-6-6--4-4-4-4-4-4-4-4--6-6-6-6--6-6-6-6--4-4-4-4-4-4-4-4---|
E:-4-4-4-4-4-4-4-4-------------------4-4-4-4-----------------------------|


After Chorus:

E:---------------------------------------------|
B:---------------------------------------------|
G:----------8-8-8-8-8-8-8-8--6-6-6-6-6-6-6-6---|
D:-6-6-6-6--8-8-8-8-8-8-8-8--6-6-6-6-6-6-6-6---|
A:-6-6-6-6--6-6-6-6-6-6-6-6--4-4-4-4-4-4-4-4---|
E:-4-4-4-4-------------------------------------|


Bridge:
E:----------------------------------|
B:----------------------------------|
G:--------5-5-5--6-6-6-6-6-6-6------|
D:-6-6-6--5-5-5--6-6-6-6-6-6-6------|
A:-6-6-6--3-3-3--4-4-4-4-4-4-4------|
E:-4-4-4----------------------------|
 PM***************************

Song ends on a G!

E:-------|
B:-------|
G:-------|
D:-5-----|
A:-5-----|
E:-3-----|
            
Submit corrections

comments powered by Disqus
↑ Back to top | Busted Tabs for Crashed The Wedding. Lyrics for acoustic guitar and electric guitar. Tablatures and chords are parodies/interpretations of the original songs. You may use it for private study, scholarship, research or language learning purposes only