» » »

Busted, Crash And Burn Tabs (ver.1)

Artists:  A B C D E F G H I J K L M N O P Q R S T U V W X Y Z # 

Crash And Burn Tabs (ver.1)

Busted Tabs
 Rating:
4/5 (4 votes)
Crash And Burn lessons Tabs too difficult? Try these video lessons and learn fast
                Busted Crash and Burn

normal tuning 

Verse and Intro

e---2---2-----2---2-----4---4-----0-0-0-0
B---2---2-----2---2-----4---4-----0-0-0-0 
G---4---4-----3---3-----4---4-----1-1-1-1
D---4---4-----4---4-----6---6-----2-2-2-2
A---2---2-----4---4-----6---6-----2-2-2-2
E---2---2-----2---2-----4---4-----0-0-0-0

Chorus and Pre Chorus

e-2-2-2-2-2-2-2-2-4-4-4-4-0-0-0-0
B-2-2-2-2-2-2-2-2-4-4-4-4-0-0-0-0
G-4-4-4-4-3-3-3-3-4-4-4-4-1-1-1-1
D-4-4-4-4-4-4-4-4-6-6-6-6-2-2-2-2
A-2-2-2-2-4-4-4-4-6-6-6-6-2-2-2-2
E-2-2-2-2-2-2-2-2-4-4-4-4-0-0-0-0

end of chorus
"I crashed and burned at your feet"
e----0----------2
B----0----------2
G----1----------3
D----2----------4
A----2----------4
E----0----------2

Bridge
"Maybe you think...."
e-4-4-4-4-2-2-2-2-0-0-0-0-0-0-0-0
B-4-4-4-4-2-2-2-2-0-0-0-0-0-0-0-0
G-6-6-6-6-3-3-3-3-1-1-1-1-1-1-1-1
D-6-6-6-6-4-4-4-4-2-2-2-2-2-2-2-2     X 2
A-4-4-4-4-4-4-4-4-2-2-2-2-2-2-2-2
E-4-4-4-4-2-2-2-2-0-0-0-0-0-0-0-0

"........I Know.......I've got........something better than you baby. 
e-0000----------2222----------0000--------------0---4---2----------0---
B-0000----------2222----------0000--------------0---4---2----------0---
G-1111----------3333----------1111--------------1---6---3----------1---
D-2222----------4444----------2222--------------2---6---4----------2---
A-2222----------4444----------2222--------------2---4---4----------2---
E-0000----------2222----------0000--------------0---4---2----------0---


Na na's same as the chorus, but palm muted, i think


Lyrics

You're so fit and you know it, and i only dream of 
You ‘cos my lifes such a b**ch, but you can change it
Maybe you need somebody just like me,
Don't turn me down ‘cos i've got no car and i've got no money...


I asked you to dance at the disco, but you said No!
The whole world was watching and laughing on the day that 
I crashed and burned...at your feet!

Since the day that you dissed me, I'm feeling so pathetic
‘Cos the guys... well they've ditched me, and its all because of...
You and your friends are laughing at me now
You think that i'm nothing, ask your sister what you're missing!


I asked you to dance at the disco, but you said No!
The whole world was watching and laughing on the day that     
I crashed and burned...at your feet!


Maybe that you think that you're too good for me
Tonight when you get home you're gonna see that
I know, 
I've got 
Something better than you baby

Na na na na, na na na na, na na na na, na na na na
Na na na na, na na na na, na na na na, na na na na

I asked you to dance at the disco, but you said No!
The whole world was watching and laughing on the day that 
I asked you to dance at the disco, but you said No!
The whole world was watching and laughing on the day that 
I crashed and burned...at your feet.
            
Submit corrections

comments powered by Disqus
↑ Back to top | Busted Tabs for Crash And Burn. Lyrics for acoustic guitar and electric guitar. Tablatures and chords are parodies/interpretations of the original songs. You may use it for private study, scholarship, research or language learning purposes only