» » »

Air Hostess Bass tabs (ver.2)

Artists:  A B C D E F G H I J K L M N O P Q R S T U V W X Y Z # 

Air Hostess Bass tabs (ver.2)

Busted
Rating:
5/5 (1 vote)
Tabs too difficult? Try these video lessons and learn fast.
                -----------------------------------------------------------------------------
			     AIR HOSTESS- Busted
-----------------------------------------------------------------------------



Tuning:standard

I'M sure this is right. Please Rate.

Intro

G|------------------------------|
D|-0-0-2-0-0-0-2-0-0-0-2-0-4-0--|
A|------------------------------| x2
E|------------------------------|

G|----------------------------------------------------------------------|
D|-0000000000000000-----------------------------------------------------|
A|-----------------0000000000000000-7777777777777777--------------------| 
E|--------------------------------------------------1-3333333333333333--|

Verse

G|----------------------------------------------------------------------|
D|-0000000000000000-7777777777777777------------------------------------|
A|----------------------------------7777777777777777--------------------|x2
E|--------------------------------------------------3333333333333333----|

Pre-chorus

G|----------------------------------------------------------------------|
D|----------------------------------0000000000000000--------------------|
A|--------------------------------------------------0000000000000000----|
E|-0000000000000000-3333333333333333------------------------------------|

G|--------------------------------------------|
D|--------------------------------------------|
A|----------------------------------00000000--|
E|-0000000000000000-3333333333333333----------|

Chourus

G|-----------------------------------------------------------------------|
D|-0000000000000000------------------------------------------------------|
A|-----------------00000000000000000-777777777777777---------------------|
E|--------------------------------------------------1-3333333333333333---|

G|------------------|
D|-0000000000000000-|
A|------------------|
E|------------------|

Bridge

G|-----------------------------------------------------|
D|-00000000--------------------------------------------|
A|---------00000000-7777777777777777-00000000-77777777-|
E|-----------------------------------------------------|

G|-----------------------------------------------------|
D|-00000000--------------------------------------------|
A|---------00000000-7777777777777777-0000000-----------|
E|------------------------------------------12/0-------|

Straight after bridge is pre-chorus

Then chorus

Interlude Pt.1

G|-----------------------------------------------------|
D|-00000000--------------------------------------------|
A|---------00000000-7777777777777777-00000000-77777777-|
E|-----------------------------------------------------|

G|-----------------------------------------------------|
D|-00000000--------------------------------------------|
A|---------00000000-7777777777777777-00000000-77777777-|
E|-----------------------------------------------------|

Interlude Pt.2(Play this straight after Pt.1)

G|-----------------------------------|
D|-0-0-2-0-0-0-2-0-0-0-2-0-4-0-2-0---|
A|-----------------------------------|
E|-----------------------------------|

End on

G|----|
D|-0--|
A|----|
E|----|

That's it.
            
Tabs too difficult? Try these video lessons and learn fast.


comments powered by Disqus
↑ Back to top | Tablatures and chords are parodies/interpretations of the original songs. You may use it for private study, scholarship, research or language learning purposes only