» » »

Gangland Bass tabs (ver.1)

Artists:  A B C D E F G H I J K L M N O P Q R S T U V W X Y Z # 

Gangland Bass tabs (ver.1)

Business
Rating:
0/5 (0 votes)

Hard to play? Try these video lessons and learn fast.
                Business- Gangland
G----------------------4-6-767-------------------------|
D----7-6-4--7-6-4--7-6---------7-6-4--7-6-4--7-6-4-777-|
A--7---------------------------------------------------|
E------------------------------------------------------|

G------------------------------------------------------|
D------------------------------------------------------|
A-4--4-5555-----------4---4-5555-----------------------|
E---7--------7777--5----7---------7777--5-5555555555555|

G----------------------------------------------------x4|
D------------------------------------------------------|
A--------55555--77777----------------------------------|
E-55555---------------55555----------------------------|

G------------------------------------------------------|
D------------------------77-66-44----------7--6-4------|
A--55555555555--------------------77--55-7--------7----|
E---------------5555555--------------------------------|

G---------------------|------------------------------x4|
D---------------------|--------------------------------|
A--55-44------7---777-|--------555555--777777----------|
E--------77-----------|555555------------------55555---|

G------------------------------------------------------|
D------------------------77-66-44----------7--6-4------|
A--55555555555--------------------77--55-7--------7----|
E---------------5555555--------------------------------|

G---------------------|--------------------------------|
D---------------------|----------------------77-66-44--|
A--55-44------7---777-|-55555555555--------------------|
E--------77-----------|-------------5555555------------|

G------------------------------------------------------|
D----------7--6-4--------------------------------------|
A-77--55-7--------7-55-44-----7---777777---------------|
E-------------------------77---------------------------|

G----------------------4-6-767-------------------------|
D----7-6-4--7-6-4--7-6---------7-6-4--7-6-4--7-6-4-777-|
A--7---------------------------------------------------|
E------------------------------------------------------|

G------------------------------------------------------|
D------------------------------------------------------|
A-4--4-5555-----------4---4-5555-----------------------|
E---7--------7777--5----7---------7777--5-555555-------|

G----------------------------------------------------x3|
D------------------------------------------------------|
A---------5555555-7777777------------------------------|
E-5555555-----------------555555-----------------------|

G--------------------------4---------------------------|
D--------------------66-77---6-77-66-44----------------|
A---------5555555-77--------------------7-5------------|
E-5555555----------------------------------------------|

G-------------------------------------play till fadeout|
D------------------------------------------------------|
A---------5555555-7777777------------------------------|
E-5555555-----------------555555-----------------------|
            
Hard to play? Try these video lessons and learn fast. | Correct




comments powered by Disqus
↑ Back to top | Tablatures and chords are parodies/interpretations of the original songs. You may use it for private study, scholarship, research or language learning purposes only