» » »

Borstal Boys Tabs (ver.1)

Artists:  A B C D E F G H I J K L M N O P Q R S T U V W X Y Z # 

Borstal Boys Tabs (ver.1)

Business
Rating:
0/5 (0 votes)

Hard to play? Try these video lessons and learn fast.
                -------------------------------------------------------------------------------
    Borstal Boys - The Business (originally by The Faces)
-------------------------------------------------------------------------------

Tuning: standard               * Palm Mute

Intro-listen to the song to for how many times each chord is played

e|-------------------------------------------------------------------------|
B|-------------------------------------------------------------------------|
G|------5---------------5-------3------5-----------------------------------|
D|--5---5---5-------5---5---5---3------5-----------------------------------|
A|--5---3---5-------5---3---5---1------3-----------------------------------|
E|--3-------3-------3-------3----------------------------------------------|
    *               *
Verse-listen to the song to for how many times each chord is played

e|----------------------------------------------------------------------------|
B|----------------------------------------------------------------------------|
G|------------5---------------------------------------------------------------|
D|--5----3----5----5----------------------------------------------------------|
A|--5----3----3----5----------------------------------------------------------|
E|--3----1---------3----------------------------------------------------------|

Chorus/Bridge-listen to the song to for how many times each chord is played

e|--------------------------|
B|--------------------------|
G|-5---(3)----------|   x 3-|
D|-5---(3)----5-------------|
A|-3---(1)----5-------------|
E|------------3-------------|

Then (End of Chorus/Bridge)-again listen for how many times

e|----------------------------------------------------------------------------|
B|----------------------------------------------------------------------------|
G|--3---5---3-----------------------------------------------------------------|
D|--3---5---3---5-------------------------------------------------------------|
A|--1---3---1---5-------------------------------------------------------------|
E|--------------3-------------------------------------------------------------|
            
Hard to play? Try these video lessons and learn fast. | Correct




comments powered by Disqus
↑ Back to top | Tablatures and chords are parodies/interpretations of the original songs. You may use it for private study, scholarship, research or language learning purposes only