» » »

Bush, Solutions Standard Tabs (ver.1)

Artists:  A B C D E F G H I J K L M N O P Q R S T U V W X Y Z # 

Solutions Standard Tabs (ver.1)

Bush Tabs
 Rating:
4/5 (4 votes)
Solutions Standard lessons Tabs too difficult? Try these video lessons and learn fast
                Tuning: Standard (EADGBE)
* = play a couple of times (listen to the cd)

I think this is the right way to play it! 

Intro/Verse:

E|---------------------------------------------------------------------------||
B|---------------------------------------------------------------------------||
G|---------9-------------9-------------9-------etc.--------------------------||
D|--9--11-----11--9--11-----11--9--11-----11---------------------------------||
A|---------------------------------------------------------------------------||
E|---------------------------------------------------------------------------||

Listen to the cd for the breaks.


Pre-Chorus: "She checks her head"

E|---------------------------------------------------------------------------||
B|-------------7--7-------6--6-----------------------------------------------||
G|--4--4-------7--7--*----6--6--*----7--7------------------------------------||
D|--4--4--*----5--5-------4--4-------7--7--*---------------------------------||
A|--2--2-----------------------------5--5------------------------------------||


Chorus: "Oh We need Solutions"

E|---------------------------------------------------------------------------||
B|---------------------------------------------------------------------------||
G|-------------9--9----------------------------------------------------------||
D|--4--4-------9--9--*-------------------------------------------------------||
A|--4--4--*----7--7----------------------------------------------------------||
E|--2--2---------------------------------------------------------------------||

Bridge: 

E|--------------------------------------------------------|| Play this before 
B|--------------------------------------------------------|| and during the Solo
G|--4-----------------------------------------------------|| I will add the Solo
D|--4-----------4--4--------------------------------------|| later.
A|--2--3-2-0-2--4--4--------------------------------------||
E|--------------2--2--3-2-0-2-----------------------------||

Structure: 
Intro/Verse
Pre-Chorus
Chorus
Verse
Pre-Chorus
Chorus
Bridge
Solo
pre-Chorus
Chorus repeat as often as needed       

Allright, this was my first tab, please rate it!!! 
cya cybersheep
            
Submit corrections

comments powered by Disqus
↑ Back to top | Bush Tabs for Solutions Standard. Lyrics for acoustic guitar and electric guitar. Tablatures and chords are parodies/interpretations of the original songs. You may use it for private study, scholarship, research or language learning purposes only