» » »

Bush, Personal Hollaway Tabs (ver.1)

Artists:  A B C D E F G H I J K L M N O P Q R S T U V W X Y Z # 

Personal Hollaway Tabs (ver.1)

Bush Tabs
 Rating:
4/5 (4 votes)
Personal Hollaway lessons Tabs too difficult? Try these video lessons and learn fast
                Intro/Main riff:
E------------------|
B------------------|
G------4--2-2-4-4--|
D-4-4--4--2-2-4-4--|
A-4-4--2------2-2--|
E-2-2--------------|
                                                                              
ALOT of this through the song:
E----------|
B----------|
G-x-x-x-x--|
D-x-x-x-x--|
A-x-x-x-x--|
E-x-x-x-x--|

This is in the background (repeat):
E------------------|
B------------------|
G------------------|
D------------------|
A-14-14-x-x-14-14--|
E------------------|
                                                                              
This comes in and out of the song:
E-------------------------------|
B-------------------------------|
G-------------------------------|
D-----4----8-8-8-8-8^-8^-8^-8^--|
A---4---4-----------------------|
E-2-----------------------------|
                                                                              
After the bass riff:-->then:
E----------------------|----|
B----------------------|----|
G-9-5-9-9-9-9-9-9-\-5--|-5--|
D-9-5-9-9-9-9-9-9-\-5--|-5--|
A-7-3-7-7-7-7-7-7-\-3--|-3--|
E----------------------|----|

( end on main riff )
            
Submit corrections

comments powered by Disqus
↑ Back to top | Bush Tabs for Personal Hollaway. Lyrics for acoustic guitar and electric guitar. Tablatures and chords are parodies/interpretations of the original songs. You may use it for private study, scholarship, research or language learning purposes only