» » »

Bush, Mindchanger Tabs (ver.1)

Artists:  A B C D E F G H I J K L M N O P Q R S T U V W X Y Z # 

Mindchanger Tabs (ver.1)

Bush Tabs
 Rating:
4/5 (4 votes)
Mindchanger lessons Tabs too difficult? Try these video lessons and learn fast
1
                Tuning: Standard
Note: strumming is not correct since I don’t have my guitar with me
Intro
|-----------------------------|
|-----------------------------|
|-9-7-9-7-9-7-7---------------|
|-x-x-x-x-x-x-x---------------|
|-7-5-7-5-7-5-5---------------|
|-----------------------------|
I don’t know about the second guitar as soon as I know I’ll post it
Part 2
|-----------------------------|
|-----------------------------|
|-9-9-9-9-9-9-9-9-9-9---------|
|-9-9-9-9-9-9-9-9-9-9---------|
|-7-7-7-7-7-7-7-7-7-7---------|
|-----------------------------|

Verse(improv on these chords)
|-----------------------------|
|-----------------------------|
|---3-------------------------|
|-2-3-------------------------|
|-2-1-------------------------|
|-0---------------------------|

|-----------------------------|
|-----------------------------|
|-9-9-9-9-9-9-9-9-9-9---------|
|-9-9-9-9-9-9-9-9-9-9---------|
|-7-7-7-7-7-7-7-7-7-7---------|
|-----------------------------|

Chorus lead
|-----------------------------|
|-----------------------------|
|-7h8-5h7h8-repeat this-------|
|-----------------------------|
|-----------------------------|
|-----------------------------|
Rythem
|-----------------------------|
|-----------------------------|
|-----------------------------|
|-5-5-5-5-5-5-5-9-9-9-9-9-9-9-|
|-5-5-5-5-5-5-5-9-9-9-9-9-9-9-|
|-3-3-3-3-3-3-3-7-7-7-7-7-7-7-|

|-----------------------------|
|-----------------------------|
|-4/8---8---------------------|
|-5/9--9-9--------------------|
|-5/9-9-----------------------|
|-3/7-------------------------|
            
Submit corrections

comments powered by Disqus
↑ Back to top | Bush Tabs for Mindchanger. Lyrics for acoustic guitar and electric guitar. 1 Tablatures and chords are parodies/interpretations of the original songs. You may use it for private study, scholarship, research or language learning purposes only