>
 >
Little Things

Little Things Chords

Bush - Little Things chords, tabs, tablatures, lyrics

Guitar lessons | Add/correct | Request | Top 50 tabs Artists:  A B C D E F G H I J K L M N O P Q R S T U V W X Y Z 0-9

Little Things Chords – Bush

CD, Sheet music, Poster

Do you like Little Things? Share with your friends now
Bass TabsChordsTabsTabs v2Tabs v3

note: if you download this song and print it out, go into windows and
download it from the NOTEPAD, not WRITE, or ANYTHING ELSE.  If you don't
print it out on the NOTEPAD all the tabliture will come out funny!

This is the new Bush single. It is another great song of the awesome
sixteen stone album.  This song is yet another masterpiece of Gavin
Rossdale.  This song isn't that hard at all.  I've made an attempt
at some of the rythm fills of the song, they are not that accurate, but 
will do.  I don't have my guitar by me right now so I probably have
many mistakes in here........oh well, I'm sure you will figure them out

Guitar
There is basically one chord progression for the entire song.  
these are the four chords basically used for little things.

B |-----| G |-----| D |-----| E |-----| 
  |-----|   |-----|   |-----|   |-----|
  |--4--|   |-----|   |--7--|   |--9--|
  |--4--|   |--5--|   |--7--|   |--9--|
  |--2--|   |--5--|   |--5--|   |--7--|
  |-----|   |--3--|   |-----|   |-----|

the progression just is B-G-D-E through the entire song.

This is played in the beginning, the chorus and maybe (i'm not sure) at
some other points in the song.

notation:
s=slide
h=hammer on note
p=pull of note
v=vibrato

Some other times in the song, he picks out the chords:
E |-------------------------------------|
B |-------------------------------------| (or something like that)
G |------4---------------7--------9-----|
D |----4---4-----5-----7---7----9---9---|
A |--2---------5---5-5-------5s7--------|
E |----------3--------------------------|

this part comes in at about 1.31 minutes
E |---------------------------------------------|
B |--------8---10-8-----8-----------------------| (it's late, i'm tired,
G |--7h9-7---7------9-7----7-9-7-5-7-5-4-5-4-2--|  here is all i could
D |---------------------------------------------|  come up with)
A |---------------------------------------------|
E |---------------------------------------------|

this little thingy comes in every once is a while, at .44 seconds, 
1.11 minutes, 2.01 seconds, and maybe in some other spots.
E |----------|
B |----------|
G |--7s9-7v--|
D |----------|
A |----------|
E |----------|

***there is also some other solo parts that are more diffcult and longer, 
  if you really need them (and i mean that you are playing a club and need 
  them to make the song to sound almost perfect) then e-mail me 
  personally e-mail them to you.  Right now i have no time 
  p.s. if you need them just to play by yourself in the basement, then
  please don't ask me, 
Bass guitar
*************
this is the bass part that is played during the verses 
    B        G      D        E       
G |------------------------------------|
D |------------------------------------|
A |--2-2-2-2---------5-5-5-5--7-7-7-7--|
E |----------3-3-3-3-------------------|

for the chorus, he just plays the B-G-D-E notes along with the guitar


other than that, that is basically it.

any corrections (which there will probabaly will be), suggestions,
comments, THANK-YOU notes, requests or anything else, just e-mail
 me and i will eventually get back to you.

remember, print it out on the NOTEPAD in windows!





Comments


Popular Bush tabs & chords
Little Things Bass Tabs
Headful Of Ghosts Chords
A Tendency To Start Fires Tabs
Bonedriven Tabs
Comedown 1 Tabs
Disease Of The Dancing Cat 1 Tabs
Goolie Get Together 1 Tabs
Speed Kills 1 Tabs
Forty Miles From The Sun Ukulele
Glycerine 2 Ukulele


Song lyrics



↑ Back to top | Tablatures and chords are parodies/interpretations of the original songs. You may use it for private study, scholarship, research or language learning purposes only
© 2014 AZChords.com Contact us | Privacy policy | DMCA | Add/correct tabs | Request tabs | Top 50 tabs