» » »

Inflatable Tabs (ver.1)

Artists:  A B C D E F G H I J K L M N O P Q R S T U V W X Y Z # 

Inflatable Tabs (ver.1)

Bush
Rating:
0/5 (0 votes)

Hard to play? Try these video lessons and learn fast.
                Bush - Inflatable
Albom - Golden State 


Verse:
e--------------------------------------------------------------------------------------------------------------
B--------------------------------------------------------------------------------------------------------------
G-----2----2--------2---------2------2-------2---------2---4---2---4------2---4--------2-------2--------2------
D-------4-----4-------4----------4-----4--------4-----------------------------------------2-------2--------2---
A--5-------------5---------4---------------4--------2------------------2------------2----------------2---------
E--------------------------------------------------------------------------------------------------------------
starts in: "....But as love that's really love can never fail.........One my only friend" 

Chorus:

Bm                      C                             Bm
You're so pretty in white pretty when you're faithful  
Bm                         C            Am  
So pretty in white pretty when you're faithful, when you faithful  

Solo: 
          						     slide
e-------------------------------------------------------------------------------------------
B-------------------------------------------------------------------------------------------
G-----------------------------------------------7--7--7--6--6-6s7---------------------------	
D---7----7--7--7--5--7--5---4--4----4--5--7--------------------------2--------4---5---------
A-------------------------------------------------------------------------------------------
E-------------------------------------------------------------------------------------------




Lyrics:

Let it slide overhead  
When I believe in you my soul can rest  
But as love that's really love can never fail  
But fail it does  
When we shine like the sun  
You seem the only one my only friend  

You're so pretty in white pretty when you're faithful  
So pretty in white pretty when you're faithful  

I resigned from myself  
Took a break as someone else  
It's like we've come undone  
But I've only just become inflatable for you  

You're so pretty in white pretty when you're faithful  
So pretty in white pretty when you're faithful  

When you're faithful, when you're... faithful  

I don't mind most of the time  
But you push me so far inside  

You're so pretty in white - Pretty when you're faithful...
            
Hard to play? Try these video lessons and learn fast. | Correct




comments powered by Disqus
↑ Back to top | Tablatures and chords are parodies/interpretations of the original songs. You may use it for private study, scholarship, research or language learning purposes only