>
 >
Glycerine 6

Glycerine 6 Guitar Tabs

Bush - Glycerine 6 chords, tabs, tablatures, lyrics

Guitar lessons | Add/correct | Request | Top 50 tabs Artists:  A B C D E F G H I J K L M N O P Q R S T U V W X Y Z 0-9

Glycerine 6 Guitar Tabs – Bush

CD, Sheet music, Poster

Do you like Glycerine 6? Share with your friends now
Bass TabsBass Tabs v2ChordsChords v2Chords v3Chords v4TabsTabs v2Tabs v3Tabs v4Tabs v5Tabs v6Tabs v7UkuleleUkulele v2
#------------------------------------------------------------------------------##

                               GLYCERINE(ACOUSTIC)
                               As recorded by Bush
                       (From the 1996 Album SIXTEEN STONE)

Words by Gavin RossdaleMusic by Bush


I have always loved this song, but am an acoustic guitar player at heart. With
that in mind, I have transposed the chords to something more suitable to the
acoustic guitar. I've also find that this arrangement makes singing a lot easier, seeing as it brings the 
down a full step and a half, from the key of G to E. The bass notes are only there for spacing- feel free 
use
as much flare with the rythym as you like- you're the one singing it!! Now
go out and make them CRY.  ;)


Gtr I (E A D G B E) - 'Untitled'

Chords Used:

E   B5  C#5  A5 <--affectionately refered to as the 'bob' chord by
                   myself and my old guitar buddies, for years..
0   2   4    0
0   2   4    0
1   4   6    2
2   4   6    2
2   2   4    0
0   3   4    0
                                                                2.
 4/4
  Gtr I
|-0-----0-----0---2-----2-----2---4-----4-----4---0-----0-----0-----|
|-0-----0-----0---2-----2-----2---4-----4-----4---0-----0-----0-----|
|-1-----1-----1---4-----4-----4---6-----6-----6---2-----2-----2-----|
|-2-----2-----2---4-----4-----4---6-----6-----6---2-----2-----2-----|
|-2-----2-----2---2-----2-----2---4-----4-----4---0-----0-----2-----|
|-0-0-0-0-0-0-0-0-2-2-2-2-2-2-2-2-4-4-4-4-4-4-4-4-0-0-0-0-0-0-0-0---|


|-0-----0-----0---|-2-----2-----2---|-4-----4-----4---|-0-----0-----0---|
|-0-----0-----0---|-2-----2-----2---|-4-----4-----4---|-0-----0-----0---|
|-1-----1-----1---|-4-----4-----4---|-6-----6-----6---|-2-----2-----2---|
|-2-----2-----2---|-4-----4-----4---|-6-----6-----6---|-2-----2-----2---|
|-2-----2-----2---|-2-----2-----2---|-4-----4-----4---|-0-----0-----2---|
|-0-0-0-0-0-0-0-0-|-2-2-2-2-2-2-2-2-|-4-4-4-4-4-4-4-4-|-0-0-0-0-0-0-0-0-|


|-4-----4-----4---0-----0-----0---|-4-----4-----4---|-0-----0-----0----|
|-4-----4-----4---0-----0-----0---|-4-----4-----4---|-0-----0-----0----|
|-6-----6-----6---2-----2-----2---|-6-----6-----6---|-2-----2-----2----|
|-6-----6-----6---2-----2-----2---|-6-----6-----6---|-2-----2-----2----|
|-4-----4-----4---0-----0-----0---|-4-----4-----4---|-0-----0-----0----|
|-4-4-4-4-4-4-4-4-0-0-0-0-0-0-0-0-|-4-4-4-4-4-4-4-4-|-0-0-0-0-0-0-0-0--|


Tablature Legend
----------------
 h   - hammer-on
 p   - pull-off
 b   - bend
 pb  - pre-bend
 r   - bend release (if no number after the r, then release immediately)
 /\  - slide into or out of (from/to "nowhere")
 s   - legato slide
 S   - shift slide
  - natural harmonic
[n]  - artificial harmonic
n(n) - tapped harmonic
 ~   - vibrato
 tr  - trill
 T   - tap
 TP  - trem. picking
 PM  - palm muting
\n/  - tremolo bar dip; n = amount to dip
 \n  - tremolo bar down
 n/  - tremolo bar up
/n\  - tremolo bar inverted dip
 =   - hold bend; also acts as connecting device for hammers/pulls
 <>  - volume swell (louder/softer)
 x   - on rhythm slash represents muted slash
 o   - on rhythm slash represents single note slash

Misc Legend
-----------
 |  - bar
||  - double bar
||o - repeat start
o|| - repeat end
*|  - double bar (ending)
 :  - bar (freetime)
 $  - Segno
 &  - Coda
Tempo markers -  = BPM(8/16=s8/s16), where s8 = swing 8ths, s16 = swing 16ths


***************************************************************************************
***************************************************************************************





Comments


Popular Bush tabs & chords
Communicator Bass Tabs
Machinehead Chords
Bomb Right Tabs
Breathe In Breathe Out (Intro) Tabs
Bush-Mouth Remix Tabs
Cold Contageous Tabs
Glycerin Tabs
Glycerine Tabs
People That We Love (Intro Ver 2) Tabs
40 Miles From The Sun Ukulele


Song lyrics



↑ Back to top | Tablatures and chords are parodies/interpretations of the original songs. You may use it for private study, scholarship, research or language learning purposes only
© 2014 AZChords.com Contact us | Privacy policy | DMCA | Add/correct tabs | Request tabs | Top 50 tabs