» » »

Bush, Glycerine 4/5 String Bass tabs (ver.1)

Artists:  A B C D E F G H I J K L M N O P Q R S T U V W X Y Z # 

Glycerine 4/5 String Bass tabs (ver.1)

Bush Tabs
 Rating:
4/5 (4 votes)
Glycerine 4/5 String lessons Tabs too difficult? Try these video lessons and learn fast
                Standard Tuning B,E,A,D,G

Verse
B-------------------------------------------------------------------------------
E--1---1--1---1--1-1------------------------------------------------------------
A---------------------3---3--3---3--3-3---------------------1---1--1---1--1-1---
D----------------------------------------0---0--0---0--0-0----------------------
G-------------------------------------------------------------------------------

Chorus
B------------------------------------------
E--1---1--1---1--1-------------------------
A-------------------3-3-3-3---1-1-1-1-0----
D------------------------------------------
G------------------------------------------

Verse
G---------------------------------------------------------|
D--------------------------------0--0-0--0-00-------------|
A----------------3--3-3--3-33-----------------1--1-1--1-11|
E-1--1-1--1-11--------------------------------------------|

Order
Verse  7x
Chorus 2x
Verse  6x
Chorus 2x
Verse  5x
<Violin Solo>
Verse  4x
Chorus 4x
            
Submit corrections

comments powered by Disqus
↑ Back to top | Bush Bass for Glycerine 4/5 String. Lyrics for acoustic guitar and electric guitar. Tablatures and chords are parodies/interpretations of the original songs. You may use it for private study, scholarship, research or language learning purposes only