» » »

Bush, Float Bass tabs (ver.1)

Artists:  A B C D E F G H I J K L M N O P Q R S T U V W X Y Z # 

Float Bass tabs (ver.1)

Bush Tabs
Rating:
0/5 (0 votes)
Float lessons Tabs too difficult? Try these video lessons and learn fast
                \ = slide down
/ - slide up
R = rest

Intro

4 bars of guitar and then

G|----------------|----------------|
D|----------------|----------------|
A|5---5-5-5---5-5-|5-5-5---5-5-5---|
E|----------------|----------------|
    Not totally sure of correct rhythm,
    Listen to CD, is easy to pick up,
    if not write down

Verse

G|----------------|----------------| \
D|----------------|----------------| |
A|----------------|----------------| |
E|2---R---2---R---|2---R---2---R---| |
                                       Play x 3
G|----------------|----------------| |
D|----------------|----------------| | Add in upward slide
A|2---R---2---R---|2---R---2---R---| | on drum fill (2nd pass)
E|----------------|----------------| /

G|----------------|----------------|
D|----------------|----------------|
A|----------------|----------------|
E|5---R---5---R---|2---R---2---R---|

G|----------------|----------------|
D|----------------|----------------|
A|2---R---2---R---|2---R---2---R---|
E|----------------|----------------|

Bridge

G|----------------|----------------|
D|----------------|----------------|
A|----------------|----------------| Again, not sure of
E|3---3---3-3-3---|5---5---5-5-5---| written rhythm

Chorus

G|----------------|----------------|
D|----------------|----------------|
A|5---5-5-5---5-5-|5-5-5---5-5-5---|
E|----------------|----------------|

G|----------------|----------------|
D|----------------|----------------| Repeat as required.
A|2---2-2-2---2-2-|2-2-2---2-2-2---|
E|----------------|----------------|

1st post chorus

G|----------------|----------------|
D|----------------|----------------|
A|----------------|----------------|
E|2---R---2---R---|2---R---2---R---|

G|----------------|----------------|
D|----------------|--------2---4-5-| Not sure if notes are correct.
A|2---R---2---R---|2---3-5---------| But sounds ok.
E|----------------|----------------|

Then verse, bridge, chorus
Small rest during guitar bit
and then during guitar solo

G|---------------------------------|
D|---------------------------------|
A|3h5-----3h5------3h5-3h5-3h5-----| listen to cd for rhythm
E|---------------------------------|

And chorus again till end.
            

comments powered by Disqus
↑ Back to top | Bush Bass for Float. Lyrics for acoustic guitar and electric guitar. Tablatures and chords are parodies/interpretations of the original songs. You may use it for private study, scholarship, research or language learning purposes only