» » »

Everything Zen Bass tabs (ver.2)

Artists:  A B C D E F G H I J K L M N O P Q R S T U V W X Y Z # 

Everything Zen Bass tabs (ver.2)

Bush
Rating:
3/5 (2 votes)

Tabs too difficult? Try these video lessons and learn fast.
                -------------------------------------------------------------------------------
			     Everything Zen(ver.2) - Bush
-------------------------------------------------------------------------------


Tuning: E,A,D,G

	Riff A
G|---------------------------------------------------------------------------|
D|---------------------------------------------------------------------------|
A|---------------------------------------------------------------------------|
E|-0-0/3-0~------------------------------------------------------------------|

	Riff B
G|---------------------------------------------------------------------------|
D|---------------------------------------------------------------------------|
A|--5-5-5-3-3-3--------------------------------------------------------------|
E|-------------0-0-3-0-------------------------------------------------------|

	Riff C
G|---------------------------------------------------------------------------|
D|---------------------------------------------------------------------------|
A|---------5--5-7-7-play that a few times then this----------5-5-5-3-3-3-----|
E|-0-0-3-0-------------------------------------------0-0-3-0-----------------|

	Riff D
G|---------------------------------------------------------------------------|
D|---------------------------------------------------------------------------|
A|---------------------------------------------------------------------------|
E|--5-5-5-0-3-3-3-03-03-03-03030---------------------------------------------|


Thats pretty much it.  During the guitar solo just play Riff B. Please rate.  Listen for 
and timing.


| /  slide up
| \  slide down
| h  hammer-on
| p  pull-off
| ~  vibrato
| +  harmonic
| x  Mute note
===============================================================================
            
Tabs too difficult? Try these video lessons and learn fast.




comments powered by Disqus
↑ Back to top | Tablatures and chords are parodies/interpretations of the original songs. You may use it for private study, scholarship, research or language learning purposes only