» » »

Bush, Englishfire Tabs (ver.1)

Artists:  A B C D E F G H I J K L M N O P Q R S T U V W X Y Z # 

Englishfire Tabs (ver.1)

Bush Tabs
 Rating:
4/5 (4 votes)
Englishfire lessons Tabs too difficult? Try these video lessons and learn fast
1
                Bush-English Fire
-Standard Tuning-


-Verse/Chorus-
E--------------------------------------------|
B--------------------------------------------|
G-7--4-4--7--4-4--7--4-4---6h7p6-------------|
D-7--4-4--7--4-4--7--4-4---------9-----------|
A--------------------------------------------|
E--------------------------------------------|

another part to above riff:

E-------------------|
B-------------------|
G---6-7-6-----------|
D---6-7-6--9--------|
A----------9--------|
E-------------------|

bridge:
one of the "all my love"s

E--------------------------------------------------|
B---------------------------------0-0---0-0---0-0--|
G--2^whole---2^whole---2^whole----4-4---4-4---4-4--|
D--------------------------------------------------|
A--------------------------------------------------|
E--------------------------------------------------|


E--------------------------------------------------|
B--------------------------------------------------|
G--4~///~~-----------------------------------------|
D--------------------------------------------------|
A--------------------------------------------------|
E------------------7/gliss-[higher]----------------|
            
Submit corrections

comments powered by Disqus
↑ Back to top | Bush Tabs for Englishfire. Lyrics for acoustic guitar and electric guitar. 1 Tablatures and chords are parodies/interpretations of the original songs. You may use it for private study, scholarship, research or language learning purposes only