» » »

Contagious Tabs (ver.1)

Artists:  A B C D E F G H I J K L M N O P Q R S T U V W X Y Z # 

Contagious Tabs (ver.1)

Bush
Rating:
0/5 (0 votes)

Hard to play? Try these video lessons and learn fast.
                Intro:


-0------0-------0---------------------|--------------------------|
-0------0--------------------0---0----|-----------------0---0----|
---------------------------5-------/9-|------9\-5-----5-------/9-|
-------------------------5-----5---/9-|-------\-5---5-----5---/9-|
------------------------------------7-|----7--\-3--------------7-|
--------------------------------------|--------------------------|



--------------------|
----------------0---|
-----9\-/5----5---/-|
---9--\-/5--5-----/-|
-7----\-/3----------|
--------------------|



Verse:

-------------------|
---------------0---|
-----9\-5----5---/-|
---9--\-5--5-----/-|
-7----\-3----------|
-------------------|


Pre-Chorus:

--------------------------------------------|
--------------------------------------------|
-9--9-9-9--9-9-9-9-9-\-5-5-5-5--5-5-5-5-5-/-|
-9--9-9-9--9-9-9-9-9-\-5-5-5-5--5-5-5-5-5-/-|
-7--7-7-7--7-7-7-7-7-\-3-3-3-3--3-3-3-3-3-/-|
--------------------------------------------|

(bolds=P.M. chords)

Chorus: (distorted)

------------------------|
------------------------|
----------5--5-5-5--5-5-|
-7--7--7--5--5-5-5--5-5-|
-7--7--7--3--3-3-3--3-3-|
-5--5--5----------------|


------------------------|
------------------------|
------------------------|
-5--5-5-5-3-3-3-3-3-3-3-|
-5--5-5-5-3-3-3-3-3-3-3-|
-3--3-3-3-1-1-1-1-1-1-0-|

--play only this twice--


1st time:

All Guitars back to Verse.

2nd time:


------------------------|
------------------------|
-9--9--9--5-5-5-5-5-5-5-|
-9--9--9--5-5-5-5-5-5-5-|
-7--7--7--3-3-3-3-3-3-3-|
------------------------|
------play 3 times------



Solo:

-12-12-12-12-12-12-12-12-12-12-12-12/15-15-15/17--17-17-17-17-17-|
( ^pick 12 as fast as possible)----------------------------------|

(Also, flick the toggle rapidly while playing 12)



----14b15r14-12-11-b12r-b12r-b12r-b12r-|
---X-----------------------------------|
--X------------------------------------|(just fill the end of this with
-X-------------------------------------|feedback and bends)
---------------------------------------|
---------------------------------------|



Interlude:


Bass plays a little riff.

Lead plays loose riffs. (those real high notes you hear here are played

behind the nut)


After all that, Rhythm plays this alone:

---------------------|----------------------------|
---------------------|----------------------------|
-9--9--5-5-5-5-5-5-5-|-9--9--12-12-12-12-12-12-12-|
-9--9--5-5-5-5-5-5-5-|-9--9--12-12-12-12-12-12-12-|
-7--7--3-3-3-3-3-3-3-|-7--7--10-10-10-10-10-10-10-|
---------------------|----------------------------|


Outro:
---------------------|
---------------------|
-9--9--5-5-5-5-5-5-5-|
-9--9--5-5-5-5-5-5-5-|
-7--7--3-3-3-3-3-3-3-|
---------------------|
--play this till end-



---------------------|---------------------------------------------|
---------------------|---10---10-10-10-10-----12----12-----12---12-|
-9-9-9-9-9-9-9-9-9-9-|-9----9-------------/12----12-----12----12---|
---------------------|---------------------------------------------|
---------------------|---------------------------------------------|
---------------------|---------------------------------------------|

(at the end of each measure, all instrements stop)
All Tabs By Howie Cassan And Jimbob Martin
This Was Tabed On Nov 15 1998
            
Hard to play? Try these video lessons and learn fast. | Correct




comments powered by Disqus
↑ Back to top | Tablatures and chords are parodies/interpretations of the original songs. You may use it for private study, scholarship, research or language learning purposes only