» » »

Bush, Comedown 4/5 String Bass tabs (ver.1)

Artists:  A B C D E F G H I J K L M N O P Q R S T U V W X Y Z # 

Comedown 4/5 String Bass tabs (ver.1)

Bush Tabs
Rating:
0/5 (0 votes)
Comedown 4/5 String lessons Tabs too difficult? Try these video lessons and learn fast
                Standatd Tuning B, E, A, D, G

Intro/Verse                       Intro/Verse on E String
B--------------------       |     B----------------------
E----2---------------       |     E--7-2-5-7-11-11-7-5---
A--2---0-2-5-5-2-0---       |     A----------------------
D--------------------       |     D----------------------
G--------------------       |     G----------------------

Chorus
B----------------------------------------------------------------------
E-------------------5-5-5-5-5-5-5-5--3-3-3-3-3-3-3-3-3-3-3-3-3-3-3-3---
A--5-5-5-5-5-5-5-5-----------------------------------------------------
D----------------------------------------------------------------------
G----------------------------------------------------------------------
            

comments powered by Disqus
↑ Back to top | Bush Bass for Comedown 4/5 String. Lyrics for acoustic guitar and electric guitar. Tablatures and chords are parodies/interpretations of the original songs. You may use it for private study, scholarship, research or language learning purposes only