» » »

Bush, Cold Contageous Tabs (ver.1)

Artists:  A B C D E F G H I J K L M N O P Q R S T U V W X Y Z # 

Cold Contageous Tabs (ver.1)

Bush Tabs
 Rating:
4/5 (4 votes)
Cold Contageous lessons Tabs too difficult? Try these video lessons and learn fast
                Guitar 1(Dist)
E-------------------------------------------------------
B-----------0------------------0------------------------
G-9-9-9---5---5---5\9-9\-----5---5\-----7---9\-5-5----5-
D-9-9-------------5\9-----------------9---9-9\-5--------
A-7-7---3-------3-3\7----3-3--------7----------3----3---
E-------------------------------------------------------

E--------
B-0------
G---5\---
D--------
A------7-
E--------

                 Verse 1
     Guitar 1(Dist)
E-------------------------------------------------------
B-----------------------------------------0---------0---
G---9\---------9---9-9-9\-----5---5-5-----0-9\5---5---5-
D------------9---9----------5---5---------9-------------
A-7----3-3\7--------------3-----------3\9-x-----3-------
E-----------------------------------------x-------------

E----------------------------------
B----------------------------------
G-5\9-9---9-----5\9-9-9---9\---5-x-
D-------9-9---5---------9-9\---5-x- Guitar 2 comes in..
A-----------3----------------3-----
E----------------------------------

     Guitar 2(Clean)
E-----------------------------------------
B-8p7\5-----------------------------------
G-------7-7-7-7-7\9~-9-9\7~-7-7\5~-5\7\9~-
D-----------------------------------------
A-----------------------------------------
E-----------------------------------------

*Guitar 1 just slides from c to E5*
     Guitar 2
E-----0-----
B-----------
G-4\5-----5-
D-------4\5-
A-------2\3-
E-----------

                 Chorus
     Guitar 1(Dist)
E---0---0---0---------------3-3-3-3-3-------------
B---0-0-0-0-0-1-3-----3-----3-3-3-3-3-------------
G-2-2---2---2-0-------------0-0-0-0-0-------------
D-2-2---2---2-2---2-----2---0-0-0-0-0-3---3---3---
A-0-----------3-----3-----3-2-2-2-2-2-3---3---3---
E---------------------------3-3-3-3-3-1-0-1-0-1-0-
 RIFF A-------------------------------------------

     Guitar 2(Dist)
E-------------------------------------------------
B-------------------------------------------------
G---------------------5-5-5-5-5-5-5-5-5-----------
D-7-7-7-7-7-7-7-7-7-7-5-5-5-5-5-5-5-5-5-5-5-5-5-5-
A-7-7-7-7-7-7-7-7-7-7-3-3-3-3-3-3-3-3-3-5-5-5-5-5-
E-5-5-5-5-5-5-5-5-5-5-------------------3-3-3-3-3-
 RIFF B-------------------------------------------

     Guitar 1(Cont)
E-3-3-3-3-3-----------------
B-3-3-3-3-3-----------------
G-0-0-0-0-0-----------------
D-0-0-0-0-0-3---3---3---3---
A-2-2-2-2-2-3---3---3---3---
E-3-3-3-3-3-1-0-1-0-1-0-1-0-
 RIFF A---------------------|

     Guitar 2(Cont)
E-----------------3-3-3-3-----------------3-
B-----------------3-3-3-3-----------------3-
G-----------------4-4-4-4-----------------4-
D-3---3---3---3---5-5-5-5-3---3---3---3---5-
A-3---3---3---3---5-5-5-5-3---3---3---3---5-
E-1-0-1-0-1-0-1-0-3-3-3-3-1-0-1-0-1-0-1-0-3-
RIFF B--------------------------------------|

     Guitar 1(clean)
E-------------
B-----0-------
G-------5\----(Repeat)
D---5--------- 
A-3---------7-
E-------------

                 Verse 2
     Guitar 1(Dist)
E---------------------------------------
B---------0-x-------0-------------------
G---9-------x-9-9-9\5-5-5-5-----9-9-9---
D-----5-----x-------5---5-5-----9-9-9-5- Guitar 2
A-7---3-3---x-------3-------3\7-------3- comes in
E---------------------------------------

     Guitar 2(Dist)
E-------------
B----0----0---
G-7^-7-7^-7-5-
D-----------5-
A-------------
E-------------

     Guitar 1(Dist)
E----------------------------------------------
B----------------------------------------------
G-5-5-5-5-5-5-----9---9---9-9\5---5-5----------
D-5-5-5-5-5-5---9---9---9---9\5-5-----5(5)-(5)-
A-3-3-3-3-3-3\7--------------------------------
E----------------------------------------------

     Guitar 1(Dist)
E-------------------        ---------------------
B-------------------        ---------------------
G------------------- reapeat-9-----9-9\5---------
D-------------------        -9-9-9-----5-5-5-5-5-
A-3-3-3-3-3-3-3-3-3-        -7-7-7-----3-3-3-3-3-
E-------------------        ---------------------
 S.P.M.-------------|       ---------------------|

     Guitar 2(Dist)
E------------------------------
B-9-----5\13-13-13-13-13-13-13-
G-9-5\9------------------------
D------------------------------
A------------------------------
E------------------------------

     Guitar 1(Dist)
E-----------------------------------------------
B-----------------------------------------------
G-----------------------------------------------
D-----------------------------------------------
A-9-9-9-9-9-9-9-9-9-9-9-9-9-9-9-9-9-9-9-9-9-9-9-
E-----------------------------------------------

     Guitar 2(Dist)
E-----------------------------------------------
B-----------------------------------------------
G-9-9-9-9-9-9-9-9-9-9-9-9-9-9-9-9-9-9-9-9-9-9-9-
D-9-9-9-9-9-9-9-9-9-9-9-9-9-9-9-9-9-9-9-9-9-9-9-
A-----------------------------------------------
E-----------------------------------------------

Chorus(RIFF A+B 1x)
Add this at end

E-----------------
B-----------------
G-----------------
D-3---3---3---3---
A-3---3---3---3---
E-1-0-1-0-1-0-1-0-

Cold Contagious.....
     Guitar 1+2(Dist)
E-------------------
B-------------------
G-9-9-9-9-9-5-5-5-5-
D-9-9-9-9-9-5-5-5-5-
A-7-7-7-7-7-3-3-3-3-
E-------------------

E---0-------0---0-----0--- 
B---0-------0---0-----0---
G-9-9-9-9-9-9-5-5-5-5-5-5-      There might be a third
D-9-9-9-9-9-9-5-5-5-5-5-5-   guitar playing root notes
A-7-7-7-7-7-7-3-3-3-3-3-3-
E-------------------------
 RIFF C-------------------|

                  Guitar solo
*The backround guitar seems just to be echoing the solo
guitar like two seconds after each note*
E-----------------------------------------------------
B--------------------------------------------16p15\13-
G-4-4-4-4-4-4-4-4-4-4-4-4-4-4\7-7h9-9~-9~-9~----------
D-----------------------------------------------------
A-----------------------------------------------------
E-----------------------------------------------------
 Fast pick-----------------|

B-12^12-12^-12-12^-12--------------
                      D-12^^^^~~~~-

                  Bridge
I don't mind this..
D-3\9-----
A-----9\1-

I am deeply grounded..
E-0---
B-0---
G-9-x-
D---x-
A---x-
E---x-

on the second "you'll get yours" guitar follows bass
A-3-3-3-3-3-3-3-3-3-3-7-7-7-7-7-7-7-7-7-

     Guitar 1(Dist)
E-0-----------------------
B-0-----------------------
G-9-9-9-9-9-9-9-9-9-9-9-9-
D---------9---------------
A-------------------------
E-------------------------

     Guitar 2(Dist)
E-------------------------------------------
B-------------------------------------------
G-9-9-9-9-9-9-9-9-9-9-9-9-9-9-9-9-9-9-9-9-9-
D-9-9-9-9-9-9-9-9-9-9-9-9-9-9-9-9-9-9-9-9-9-
A-7-7-7-7-7-7-7-7-7-7-7-7-7-7-7-7-7-7-7-7-7-
E-------------------------------------------

     Guitar 1(Dist)
E---------------------------
B---------------------------
G-9-0-5-5-5-5-5\9-2-2-2-2-2-
D-9-0-5-5-5-5-5\9-2-2-2-2-2-
A-7-0-3-3-3-3-3\7-----------
E---------------------------

RIFF C(2x)

E-----------------------------
B-----------------------------
G-9-9^(9)-(9)-9-5-5-5-5-5-5-5-
D-9-9^(9)-(9)-9-5-5-5-5-5-5-5- repeat
A-7-7^(7)-(7)-7-3-3-3-3-3-3-3-
E-----------------------------

RIFF C(2x)

there is a solo but too hard to figure out
E-------------------------
B-------------------------
G-9-9-9-9-9-5-5-5-5-5-5-5-
D-9-9-9-9-9-5-5-5-5-5-5-5- repeat (pause) repeat
A-7-7-7-7-7-3-3-3-3-3-3-3-
E-------------------------

RIFF C then
G-9-
D-9-
A-7-


              Bush-Cold Contagious


      -- Cold Contaigous by Bush.  Razorblade Suitcase version. --

  Intro -

    E5                    C5                            E5
1|----------------------------------|--------------|---------|
2|----------------------------------|-----0------0-|---------|
3|--9----------9-------\---5--------|---5------5---|--/--9---|
4|--9-------9------9---\---5--------|-5------5-----|--/--9---|
5|--7----7---------7---\---3--------|--------------|--/--7---|
6|----------------------------------|--------------|---------|
                                    |----Fill 1----|

  Play these chords very loosely, hitting open strings often.  This
is just an example.  Anything you play with those chords will sound good.


Verse -
 -- Same as Intro riff but not as broken up.  Repeat Fill 1 often --

-Verse 1:
E5(7th fret)         C5   
   Wherever you are...
(FILL 1)
E5
C5 (FILL 1)

Pre Chorus -
 E5 (on 7th fret)       C5
  You will...

 -- Repeat several times getting progressively heavier --


Chorus -
A5                             C5
   You have no...
C5 G5 F5
F5 G5 F5

 -- return to verse on first chorus --

E5(7th fret)    C5
  Cold...

 -- repeat verse --

-Verse 2:
E5                        C5
    Reality...
E5
C5

-Verse 3:

 -- Only play bassline with distorted guitar noises --

E5                           C5
  Paint your...
(FILL 1)

 -- play bassline once alone --
 
  Before the last chorus play this and then skip the first part of
the chorus and go to where he sings "Cold Contaigous"

 E5  (pause) C5
 E5  (pause) C5
            
Submit corrections

comments powered by Disqus
↑ Back to top | Bush Tabs for Cold Contageous. Lyrics for acoustic guitar and electric guitar. Tablatures and chords are parodies/interpretations of the original songs. You may use it for private study, scholarship, research or language learning purposes only