» » »

Bush-Spacetravel Tabs (ver.1)

Artists:  A B C D E F G H I J K L M N O P Q R S T U V W X Y Z # 

Bush-Spacetravel Tabs (ver.1)

Bush
Rating:
0/5 (0 votes)

Hard to play? Try these video lessons and learn fast.
                This is one of the best songs on the album!!! It rocks!  Be sure to
pick up this
album if you haven't already!!

This tab is almost complete but I need your help to finish it.


Intro A: (anything between { and } play palm-muted!)
e|-----------------------------------------------------------
B|-----------------------------------------------------------
G|-----------------------------------------------------------
D|--{4}-------------{4}-----{4}-{4}--------------------------
A|--{2}-{2}-{2}-{2}-{2}-{2}-{2}-{2}-{2}-{2}-{2}-{2}-{2}-{2}--
E|-----------------------------------------------------------


Intro B: (anything between { and } play palm-muted!)
e|-----------------------------------------------------------------------------------
B|-----------------------------------------------------------------------------------
G|------------------4-----------4-----4-------------------4-----------5-5---5-5-5-5--
D|--------------------3-----------------3-------------------3---------5-5---5-5-5-5--
A|--{2}-{2}-{2}-{2}-----{2}-{2}---{2}-----{2}-{2}-{2}-{2}-----{2}-{2}-3-3---3-3-3-3--
E|-----------------------------------------------------------------------------------


Verse and Intro C:
e|--------------------------------------
B|--------------------------------------
G|--4-4--4-4-4--4-4--5-5--5-5-5-5--5-5--
D|--4-4--4-4-4--4-4--5-5--5-5-5-5--5-5--
A|--2-2--2-2-2--2-2--3-3--3-3-3-3--3-3--
E|--------------------------------------


Chorus:

  GUITAR 1
                             " my future lies... in space travel"
"she's coming 
                                                                   over
me"
e|--------------------------------------------------------------------------------
B|--------------------------------------------------------------------------------
G|--7-7--7-7-7--7-7--9-9--9-------------------------------------------------------
D|--7-7--7-7-7--7-7--9-9--9----------------------------------------10----7--------
A|--5-5--5-5-5--5-5--7-7--7----------------------------------------10----7--------
E|------------------------------------------------------------------8----5--------

  GUITAR 2 (i'm not sure of this part)
  anything between [ and ], play a harmonic
e|--------------------------------------------------------------------------------
B|--------------------------------------------------------------------------------
G|----------------------------[5]-[5]------------[5]-[5]-----[5]------------------
D|------------------------------------[5]-[5]------------[5]----------------------
A|--------------------------------------------------------------------------------
E|------------------------------------------------------------------8~~~-5~~~~~~--


RIFF @ 2:26
e|-----------------
B|-----------------
G|--7------7/9-----
D|--7------7/9--9--
A|--5------5/7--9--
E|--------------7--


RIFF - "1,2,3..."
  2:35            2:39
e|----------------7-5--7-5--7-5--7-5--
B|----------------5-5--5-5--5-5--5-5--etc etc
G|------------------------------------
D|-------7----------------------------
A|-------7----------------------------
E|--8\5--5----------------------------

Ending - ?

Here's something to entertain you at least.  It's not complete and not
100% accurate so I'm open
to any suggestions.

P.S. - anyone got a tab for "Old Enough" by Nickelback or "So Long" by
Everlast??!!
            
Hard to play? Try these video lessons and learn fast. | Correct




comments powered by Disqus
↑ Back to top | Tablatures and chords are parodies/interpretations of the original songs. You may use it for private study, scholarship, research or language learning purposes only