» » »

Bush-Comedown Tabs (ver.1)

Artists:  A B C D E F G H I J K L M N O P Q R S T U V W X Y Z # 

Bush-Comedown Tabs (ver.1)

Bush
Rating:
0/5 (0 votes)

Hard to play? Try these video lessons and learn fast.
                this is almost perfect , and i think its correct! this is being tabbed
negativecreep!





verse:

e-------------------------------
b-------------------------------
g--------------------------------
d-9----7----4----5-----------
a-9----5----4----5-----------
e-7----5----2----3------------


chorus

e----------------------
b----------------------
g---7------------ -----
d---7----7----5-----
a---5----7----5-----
e---5----5----3-------
            
Hard to play? Try these video lessons and learn fast. | Correct




comments powered by Disqus
↑ Back to top | Tablatures and chords are parodies/interpretations of the original songs. You may use it for private study, scholarship, research or language learning purposes only