>
 >
Bush-40milesfromthesun

Bush-40milesfromthesun Guitar Tabs

Bush - Bush-40milesfromthesun chords, tabs, tablatures, lyrics

Guitar lessons | Add/correct | Request | Top 50 tabs Artists:  A B C D E F G H I J K L M N O P Q R S T U V W X Y Z 0-9

Bush-40milesfromthesun Guitar Tabs – Bush

CD, Sheet music, Poster

Do you like Bush-40milesfromthesun? Share with your friends now
Tabs

album...
key:
{'}-rake strings starting at furtherest away
{_}-" at closest to you
/or\-slide
~-vibrato
main: Em G Em
gtr.1
e-0----------------------------
b-0----------------------------
g-0----------------------------
D-2--2------------2------------
A-2--2-----2-2----2-----2-2----
E-0--0-0-0-3-0-0--0-0-0-3-0-0--
 {'}
gtr.2
e------------------------------
b------------------------------
g----------0------------0------
D----2---2---2----2---2---2----
A-----------------------2------
E----0-0---3-0-0--0-0---3-0-0--

2nd part of main: Em D Em
gtr.1
e-0-----0-----0-----0----0---0--
b-5------5\3--3------3----3--0--
g-4---4-------2---2----2-----0--
D-2--2--------0--0-----------2--
A----------------------------2--
E----------------------------0--
 {_}         {_}            {_}

interlude:
gtr.1
e--0---0---0---0---0--0-0-----0---
b--5~~~4~~~5~~~4~~~5--8-8/10-10~~~
gtr.2(enters after gtr plays riff once)
e-12~~11~~12~~11~~12-15-15/17-17~~
b-12~~12~~12~~12~~12-15-15/17-17~~

Chorus:
gtr.2
  Em    G1  E  Em G
D-2-----12-9--2---12-12-12-12--
A-2-2-2/10-7--2---10-10-10-10--
E-0-0-0--0-0--0-0--0---0----0--
                "40miles from.."
gtr.1
same chord pattern with these:
Em:0220xx G1:3220xx E:02xxxx G:320033
and sometimes:
Em:0220xx G1:3220xx E:02xxxx Gxx578x

that's about it. I'm sure I'm missing something though. The main riff
varies from ad-libbing, so stick with the chord pattern, and play what
sounds good. later cats,
jimi





Comments


Popular Bush tabs & chords
In A Lonely Place 2 Bass Tabs
Letting The Cables Sleep Bass Tabs
Glycerine Chords
Give It All Away Tabs
Jesus Online Tabs
Machinehead Tabs
Machinehead 2 Tabs
Old Tabs
Prizefighter Tabs
Warm Machine Tabs


Song lyrics



↑ Back to top | Tablatures and chords are parodies/interpretations of the original songs. You may use it for private study, scholarship, research or language learning purposes only
© 2014 AZChords.com Contact us | Privacy policy | DMCA | Add/correct tabs | Request tabs | Top 50 tabs