» » »

Bush, Bone Driven Tabs (ver.4)

Artists:  A B C D E F G H I J K L M N O P Q R S T U V W X Y Z # 

Bone Driven Tabs (ver.4)

Bush Tabs
Rating:
0/5 (0 votes)
Hard to play? Try these video lessons and learn fast.
                This is probably my favorite song to play on my guitar currently. After seeing bad tabs 

NOTE: I listened to song at VERY HIGH VOLUME and tabbed out the WHOLE song
without skipping any parts.
Pretty sure this tab is 95% correct. All though this Bush song was played
loosely and accuracy was not an issue, this tab was made for all you
accurate-needing people (me being one of them)
Hope you enjoy.

Tuning: Standard
(): Your choice of playing the note
x: Mute note
/: Slide (***notes touching right side of / are not played, however ones
touching left side of / are played)


|----------------------------------------------------------------|
|----0-------------------------------0---------------------------|
|----------(x)-------------------------------0-------------------|
|--2-----2-------------------------2-------2---------------------|
|0-----3-------2/7-7-7-7/5-5/9---0-----0-3-----2/7-7-7-7/5-5/9---|
|----------------------------------------------------------------|

|----------------------------------------------------------------|
|----0-----------------------------0-----------------------------|
|----------0-----------------------------------------------------|
|--2-----2-----------------------2-------------------------------|
|0-----3-----2/7-7-7-7/5-5/9---0-----3-2...----------------------|
|----------------------------------------------------------------|

|--------------------------------------(x)-----------------------|
|--------0-----0----0-------------------0-------0-------0--------|
|------------------(0)-----0-------------------------------------|
|------2---2-------------0---0--------2---2-------0-0-0---0------|
|2-0-0-------3---2-----2------------0-------3-2------------------|
|----------------------------------------------------------------|
...away...
|----0---------------------------------0-------------------------|
|----0-------0---0-----0-----0---------0-------0-----0-----3/5--0|
|----------------------------0-------0---------------------------|
|--2---2---2---------------------------------2---------0-0-------|
|0-------3-----2---2-2---(2)-------0-----0-3-----2---------------|
|----------------------------------------------------------------|
                    ...beat...                          ...say u will...
|----------------------------------------------------------------|
|-----0-----0---0-----3/5-0----------0-----0---0--------3/5--0---|
|----------------------------------------------------------------|
|---2-------------0-0------------------2-------------------------|
|-0-----0-3---2-----------------0--------3---2-------------------|
|------------------------------------------------(0)(0)----------|
                   ...nevermind                      ...open up...
|-----------------------------------0----------------------------|
|----0-------0---0-----3/5-0--------0-------0----0---------------|
|--0---0---------0----------------0---0----------------0---------|
|----------2-------0-0--------------------2----------------------|
|0-------3-----2----------------0-------3-----2----2-2---0-------|
|----------------------------------------------------------------|
                    ...open wide...
|---------------------------------------------------             |
|---------0-----------------------------------------             |
|-------------------------0-0-5-5-------------------             |
|5-5-5-2----------5-5-5/2-------5-5-----------------   VIOLINS   |
|5-5-5-2------2/5-5-5-3/2-------3-3-3-3-3-3-3-3-3-0-             |
|3-3-3-0----0-----3-3-3-0---------------------------             |
                           ...Taking...
|----------------------------------------------------------------|
|--------0------------------------0------------------------------|
|--------0-------0---0----0-------0--------0---0-----------------|
|------2------------------------2--------2-----------------------|
|0-0-0-----(x)-3---2--2--2-2--0------0-3-----2---2-2-2-2-2-0-----|
|----------------------------------------------------------------|
.....pollutants...     ..shave..                ..we're all...
|----------------------------------------------------------------|
|----0----------------------------0-------0----0-----3/5-0-------|
|--0---------0---0--------------0---0---0------------------------|
|2---------2--------------------2-------2------------------------|
|------0-3-----2---2-(x)-2----0-------3-----2----2/0-------------|
|----------------------------------------------------------------|
              ...we're...                         ...isolate...
|----------------------------------------------------------------|
|----0-----------0-----3/5-0--------0-------0---0-----3/5-0------|
|--0---0-----0----------------------------0----------------------|
|2---------2---------0------------2---2-----------0-0------------|
|--------3-----2---2------------0-------3-----2------------------|
|----------------------------------------------------------------|
                    ...crowd...                    ...all that's...
|----------------------------------------------------------------|
|----0-------0---------3/5-0--------0-------0-----0--------------|
|--0-------------0--------------------------------0-----0--------|
|--2---2---2-------2-2------------2---2---2-------------0--------|
|0-------3-----2----------------0-------3-----2-----2-2---2-0----|
|----------------------------------------------------------------|
                     ..inside out...
|----------------------------------------------------------------|
|----------------------------------------------------------------|
|5-----5/4-4-----4/5-5-----5/4-4--------------4------------------|
|5-----5/4-4-----4/5-5-----5/4-4------------444------------------|
|3333333/2-2222222/3-3333333/2-2222222222222222------------------|
|----------------------------------------------------------------|
  ...Heaven...
|----------------------------------------------------------------|
|----------------------------------------------------------------|
|--------0------(4)-----5-5--------------------------------------|
|5-5-5-2---2/5-5-5-5/2--5-5--------------------5-5-5/2-2/5-5-5/2-|
|5-5-5-2---2/5-5-5-5/2--3-3----3-3-3-3-3-3-3-3-5-5-5/2-2/5-5-5/2-|
|3-3-3-0-----3-3-3-3-0-------------------------3-3-3-0-0-3-3-3-0-|
 ..Bonedriven
|----------------------------------------------------------------|
|----------------------------------------------------------------|
|5-5---------------5---7---7-7-9-----------9/7-7-------7---7---9-|
|5-5-------------5-5---7---7-7-9---------9-9/7-7-------7-7-7---9-|
|3-3---3-3-3-3-3-3-3---5---5-5-7-7-7-7-7-7-7/5-5-5-5-5-5-5-5/7-7-|
|----------------------------------------------------------------|
                         ..I was wrong..
|----------------------------------------------------------------|
|----------------------------------------------------------------|
|----------9/7-7----------------9--------------------------------|
|--------9-9/7-7-----------7----9--------------------------------|
|7-7-7-7-7-7/5-5-5-5-5-5-5-5-5/-7-7-7-7-7-7-7-7-7-7-7-7-7-7-7-7-7|
|----------------------------------------------------------------|
                    ...I was wrong...
|----------------------------------------------------------------|
|----------------------------------------------------------------|
|----------------9-------0---------0-----------------------------|
|----------------9-----2-------(x)-------------------------------|
|7-7-7-7-7-7-7-7-7---0-----0-3-------2/7-7-7-7/5-5/9-------------|
|----------------------------------------------------------------|
               ..wait...
|----------------------------------------------------------------|
|----0------------------------------7-8-8-8---------7/8-8-8------|
|--------------0--------------------7---7-----------7------------|
|--2-------(x)------------------------------5/7-7-----------5/7-7|
|0-----0-3-------2/7-7-7-7/5-5/9---------------------------------|
|----------------------------------------------------------------|
                                    [Violins begin]
|----------------------------------------------------------------|
|---7/8-8-8----------7/8/7-7-7-8-8-7-7-7-7-8-8-7-7-8-8-8-8-8-7-7-|
|---7---7------------7-----7-7-7-7-7-7-7-7-7-7-7-7-7-7-----------|
|7----------5/7-7-7----------------------------------------------|
|----------------------------------------------------------------|
|----------------------------------------------------------------|

|----------------------------------------------------------------|
|7-5-5-5--------------8-8-8-7-7-7-5-5-5--------------------0-----|
|--------7-7-7-5/4----------------------7-7-7-5/4----------------|
|------------------7------------------------------7------2---2---|
|------------------------------------------------------0-------3-|
|----------------------------------------------------------------|

|----------------------------------------------------------------|
|--0--------------------------------------0-----------0----------|
|0----------------------------------------0-------0---------0---0|
|---------------------------------------2---------------0-0---0--|
|----0------------------2-2-2-2-2-2-2-0-----0-3-3---2---------2--|
|----------------------------------------------------------------|
     ...[static begins]          ...lamps...        ..won't...
|--------------0-------------------------------------------------|
|----0-----0------------------------0-------0---0---0------------|
|--0-0-------------0----------------------------0---0------------|
|--2-----2---------0---0-0--------2-----(x)-------0---0-0-0------|
|0-----3-----2---2---2----------0-----3-------2------------------|
|----------------------------------------------------------------|
                ...rest...                   ...might
|----------------------------------------------------------------|
|----0-------0----0------------------------0---------------0-0---|
|--0---0----------0-----0------------------0---------------0-0---|
|2---------2-----------------------5-5-5-2---2/5-5-5-5/2-2-2-2---|
|--------3-----2----2-2---0--------5-5-5-2---2/5-5-5-5/2-2-------|
|----------------------------------3-3-3-0-------3-3-3---0-------|
                                   ..Bone driven...
|-------------------------------------0--------------------------|
|-------------------------------------0-0-----------0------------|
|5-5-----------------5----------------0-0-----------0-0---5-5----|
|5-5---5-----5-----5-5------5(x)5-5-2-2-2-5-5-5-2---2-2---5-5----|
|3-3---3-3-3-3-3-3-3-0------5(x)5-5-2-2-2-5-5-5-2---2-2-2-3-3----|
|---------------------------3---3-3-0-0-0-3-3-3-0---0-0-0--------|
 Taking...                    ..Bone driven...          ..taking...
|-----------------------------------------                       |
|-----------------------------------------                       |
|------------------5-5--------------------                       |
|----------5-5-5---5-5--------------------       VIOLINS         |
|3-3-3-3-3-3-3-3---3-3-3-3-3-3-3-3-3------                       |
|-----------------------------------------                       |
                ...taking.....[fade out]
|---------0------------------------------------------------------|
|(0)------3------------------------------------------------------|
|-0-------0------------------------------------------------------|
|-2-------0------------------------------------------------------|
|-2------(2)-----------------------------------------------------|
|-0--------------------------------------------------------------|
[ending with 2 strokes]
            

comments powered by Disqus
↑ Back to top | Bush Tabs for Bone Driven. Lyrics for acoustic guitar and electric guitar. Tablatures and chords are parodies/interpretations of the original songs. You may use it for private study, scholarship, research or language learning purposes only