>
 >
Bomb

Bomb Guitar Tabs

Bush - Bomb chords, tabs, tablatures, lyrics

Guitar lessons | Add/correct | Request | Top 50 tabs Artists:  A B C D E F G H I J K L M N O P Q R S T U V W X Y Z 0-9

Bomb Guitar Tabs – Bush

CD, Sheet music, Poster

Do you like Bomb? Share with your friends now
TabsTabs v2
-------------------------------------------------------------------------------
-------------------------------------------------------------------------------
Tuning: Standard

Well there's only one tab for this song and it barely has anything. Not too hard to 
out, enjoy.

Intro
Guitar 1
e|-----------------------------------------|
B|------------------------------------1-0--|
G|--------------------------4--------------|
D|------2---------3-----------5------------|
A|----2---------3---3/----5--------3-------|
E|--0-----0--1----------3--------1---------|

Guitar 2
Riff throughout the song
e|----------------------------------------|
B|----------------------------------------|
G|--12s11-9s11-9s7--9s7-4s7-4s2-4s2--0----|
D|-------------------------------------2--|
A|----------------------------------------|
E|----------------------------------------|

Chorus
e|-------------|
B|-------------|
G|--5555--X33--|  x4
D|--5555--X33--|
A|--3333--X11--|
E|-------------|

e|-------------|
B|-------------|
G|--5555--X88--|  x1
D|--5555--X88--|
A|--3333--X66--|
E|-------------|

Small Riff
e|------------------------|
B|------------------------|
G|--13-14-16-14s16-14-13--|
D|------------------------|
A|------------------------|
E|------------------------|

Then these parts again
e|-----------------------------------------|
B|------------------------------------1-0--|
G|--------------------------4--------------|
D|------2---------3-----------5------------|
A|----2---------3---3/----5--------3-------|
E|--0-----0--1----------3--------1---------|

e|----------------------------------------|
B|----------------------------------------|
G|--12s11-9s11-9s7--9s7-4s7-4s2-4s2--0----|
D|-------------------------------------2--|
A|----------------------------------------|
E|----------------------------------------|

Bridge
High Distortion
Guitar 1
e|----------------------|
B|----------------------|
G|----------------------|
D|--222--333--555--333--|
A|--222--333--555--333--|
E|--000--111--333--111--|

Guitar 2
e|----------------------------------|
B|--12b~12b~--6-6-8-6-5s3-5---------|
G|---------------------------2-2s4--|
D|----------------------------------|
A|----------------------------------|
E|----------------------------------|


That's about it. Enjoy, comment, rate! Thanks.





Comments


Popular Bush tabs & chords
Headful Of Ghosts Chords
40 Miles From The Sun Tabs
Baby Come Home Tabs
Bush-Jesusonline Tabs
Machinehead Tabs
Peronal Hollowa Tabs
Prizefighter Tabs
Swallow Tabs
Swallowed Remix 1 Tabs
Swim Tabs


Song lyrics



↑ Back to top | Tablatures and chords are parodies/interpretations of the original songs. You may use it for private study, scholarship, research or language learning purposes only
© 2014 AZChords.com Contact us | Privacy policy | DMCA | Add/correct tabs | Request tabs | Top 50 tabs