>
 >
American Eyes

American Eyes Guitar Tabs

Bush - American Eyes chords, tabs, tablatures, lyrics

Guitar lessons | Add/correct | Request | Top 50 tabs Artists:  A B C D E F G H I J K L M N O P Q R S T U V W X Y Z 0-9

American Eyes Guitar Tabs – Bush

CD, Sheet music, Poster

Do you like American Eyes? Share with your friends now
Tabs
This song is a Golden State B-Side released on some versions of "the people that we love" single.

main riff:
----------------------------------------------------------|
----------------------------------------------------------|
----------------------------------------------------------|
-------------4h5-4-----4h5-4-------------4h5-4-----4h5-4--|
-----------------------------------2~~~2~~~------2~~~-----|
--3~~~3~~~----------3~~~----------------------------------|

(1st verse)
G                   B	                    G                B
you dropped the bomb using all your chlorine you find yourself so far down it's normal
G* w/main            B            G                       B           
there a defeat the slow burn comes to carry you back to earth or where you're from

(prechorus)
   B                  C   G   C   G    G    B
-------------------|--0-------0------------------|
-------------------|--1---3---1---3--------------|
-----------2h4-----|--0---0---0---0--------------|
------4h5----------|--2---0---2---0----5----9----|
--2----------------|--3---2---3---2----5----9----|
-------------------|------3-------3----3----7----|

(2nd verse) 
you feed me whole varied nurtrients 
i lost control i trashed all my instincts

(prechorus)
i wanted to escape to feel nothing at all

(chorus)
              D             F                          D           F
cause they're alive when you spoke to me broke the disguise of my empathy
        D         F                  D            F E F E F    
my valentine she wrote to me will we ever come again

(3rd verse)
england is gone the way of the gypsies
we do what we can within the systems

(prechorus)
i hope you feel the earth turn inside of you

(chorus)
cause they're on the line when you spoke 
broke the disguise of my empathy
american eyes so close to me
will you ever come again

(bridge)
C                E                 C   
a heavy load and a ***ed up system you're on your own
E                         D
with all your instincts all you see is all you get
C* w/fill A
surfing on the waves of promises

fill A
--------------|
--------------|
--5~~---------|
--5~~--5\4~~--|
--3~~---------|
--------------|

(interlude)
---------------------------------||------------------|
--8------8-------8------8--------||--8---8--10--12^--|
--11^-^--10^-^--11^-^--10^-------||--10^~~~----------|
---------------------------------||------------------|
---------------------------------||------------------|
---------------------------------||------------------|

(chorus)
my valentine she wrote to me american eyes so close to me
will you ever come again
american eyes
will you ever come again
if we ever come again

during the outro there is a lead overdub:
--------------------------|
--------------------------|
--h4h5h7--h4h5h7--h4h5h7--|
--------------------------|
--------------------------|
--------------------------|

key:
^ - bend up accordingly
h - hammer on
~ - let the note(s) sustain through
\ and / - slide up and down the fret accordingly

thank you, your time is much appreciated... as i hope my time spent making this tab out is apprectiated! PICKUP A COPY OF GOLDENSTATE; trust me: you won't be disappointed.

arial.10pnt.western
all my love and regards
jimi-james brewer





Comments


Popular Bush tabs & chords
Greedy Fly 2 Bass Tabs
Jesus Online 1 Bass Tabs
Comedown (Acoustic) Chords
Out Of This World Chords
Body 1 Tabs
Broken Tv 1 Tabs
Little Things Tabs
Mouth Tabs
Speed Kills 1 Tabs
Testosterone 1 Tabs


Song lyrics



↑ Back to top | Tablatures and chords are parodies/interpretations of the original songs. You may use it for private study, scholarship, research or language learning purposes only
© 2014 AZChords.com Contact us | Privacy policy | DMCA | Add/correct tabs | Request tabs | Top 50 tabs