» » »

Afterlife Tabs (ver.1)

Artists:  A B C D E F G H I J K L M N O P Q R S T U V W X Y Z # 

Afterlife Tabs (ver.1)

Bush
Rating:
0/5 (0 votes)

Hard to play? Try these video lessons and learn fast.
                                       Afterlife- Bush
                      As recorded by Bush
             (From the 2010 Album Everything Always Now)

Words and Music by Bush

Tuning: (E A D G B e) - 'Standard Tuning'


Legend:
. = Palm Mute
/ = Slide
w = wah

Intro Riff:

e---------------------------------------------------------------------------|
B-----8---8---8----------8---8---8---------8----8---8---10---8---10-10--8---|
G--9----9---9---------9----9---9--------9----9----9---9----9---9------------| x4
D---------------------------------------------------------------------------|
A---------------------------------------------------------------------------|
E---------------------------------------------------------------------------|


Verse:

Bass riff x2

After the bass riff repeats 2x, play the intro riff


Chorus:

Guitar 1:
e-------------------------------------------------------------------------------|
B-------------------------------------------------------------------------------|
G--12-12-12-12-12-12-12-12--9-9-9-9-9-9-9-9--4-4-4-4-4-4-4-4---5-5-5-5-7-7-7-7--|
D---x--x--x--x--x--x--x--x--x-x-x-x-x-x-x-x--x-x-x-x-x-x-x-x---x-x-x-x-x-x-x-x--| x4
A--10-10-10-10-10-10-10-10--7-7-7-7-7-7-7-7--2-2-2-2-2-2-2-2---3-3-3-3-5-5-5-5--|
E-------------------------------------------------------------------------------|

In the background there is a part that uses a wah pedal:

Guitar 2:
e-------------------------------------------|
B--10w--10w--10w--12w--12w--15w--15w--15w---|
G-------------------------------------------|x4
D-------------------------------------------|
A-------------------------------------------|
E-------------------------------------------|

And then:

Guitar 1 plays this in the background:
e-------------------------------------------------------------------------------|
B-------------------------------------------------------------------------------|
G--12-12-12-12-12-12-12-12--9-9-9-9-9-9-9-9--4-4-4-4-4-4-4-4---5-5-5-5-7-7-7-7--|
D---x--x--x--x--x--x--x--x--x-x-x-x-x-x-x-x--x-x-x-x-x-x-x-x---x-x-x-x-x-x-x-x--| x2
A--10-10-10-10-10-10-10-10--7-7-7-7-7-7-7-7--2-2-2-2-2-2-2-2---3-3-3-3-5-5-5-5--|
E-------------------------------------------------------------------------------|


Guitar 2:

e---------------------------------------------------------------------------|
B--12-12-------10-10-------15-15--------12-12-------17-17-------15-15-------|
G--------12-12-------------------14-14--------12-12-------16-16-------14-14-|
D--------------------12-12--------------------------------------------------|
A---------------------------------------------------------------------------|
E---------------------------------------------------------------------------|
                                                                                  x2
e--15-15-14-14-15-15-17-17--|
B---------------------------|
G---------------------------|
D---------------------------|
A---------------------------|
E---------------------------|


Then the Verse (This time guitar 2 plays the intro in the background occasionally)

Then the Chorus


Then the Bridge:

(Let ring)
e--------------------------------------------------------------------|
B----------------0---------------------------------------------------|
G----------5--------5------5--------------------9-------0-----0------| x4
D------7------7---------7-----7------------10------10------0-----0---|
A--------------------------------------------------------------------|
E--5-----------------------------5-----8-----------------------------|


Then the chorus repeats until the end of the song.
            
Hard to play? Try these video lessons and learn fast. | Correct




comments powered by Disqus
↑ Back to top | Tablatures and chords are parodies/interpretations of the original songs. You may use it for private study, scholarship, research or language learning purposes only