>
 >
This Guy's In Love With You

This Guy's In Love With You Guitar Tabs

Burt Bacharach - This Guy's In Love With You chords, tabs, tablatures, lyrics

Guitar lessons | Add/correct | Request | Top 50 tabs Artists:  A B C D E F G H I J K L M N O P Q R S T U V W X Y Z 0-9

This Guy's In Love With You Guitar Tabs – Burt Bacharach

CD, Sheet music, Poster

Do you like This Guy's In Love With You? Share with your friends now
ChordsTabs
Solo  arrangment.                                                                            
This Guy In Love With You    from loner133

E|------ 0---- 0-------- 0---- 0--|------ 0---- 0-------- 0--------|
B|------ 0---- 0-------- 0---- 0--|------ 1---- 1 1---- 3 1------ 0|
G|---- 0 0---- 0-- 0-- 0 0---- 0--|---- 2 2---- 2------ 2 2---- 2--|
D|--------------------------------|--------------------------------|
A| 3------------ 3----------------|--------------------------------|
E|--------------------------------| 1-------------- 1--------------|

E|-------- 0-- 0-------- 0---- 0--|------ 0---- 0-------- 0--------|
B|-------- 0-- 0-------- 0---- 0--|------ 1---- 1-------- 3--------|
G|---- 0-- 0-- 0------ 0 0---- 0--|---- 2 2---- 2------ 2 2--------|
D|--------------------------------|--------------------------------|
A| 3-------------- 3--------------|--------------------------------|
E|--------------------------------| 1-------------- 1--------------|
    

E|------ 0---- 0-------- 0---- 0--|------ 0---- 0---------- 0---- 5|
B|------ 0---- 0-------- 0---- 0--|------ 1---- 1------ 3-- 1---- 5|
G|------ 0---- 0------ 0 0---- 0--|---- 2 2---- 2------ 2-- 2------|
D|---- 2--------------------------|--------------------------------|
A| 3------------ 3----------------|--------------------------------|
E|--------------------------------| 1-------------- 1--------------|

E|---- 5--------------------------|--------------------------------|
B|---- 5-------------- 3------ 3--|---- 3 3---- 3------ 1 3--------|
G| 5-- 5---- 2-- 5------------ 1--|---- 1 1---- 1------ 1 1--------|
D| 3-------- 2 2 3------------ 3--|---- 3 3---- 3------ 3 3--------|
A|---------------------------- 1--|--------------------------------|
E|-------- 3---- 5----------------|-------------- 1----------------|

E|------ 0---- 0---------- 0-- 0--|------ 0---- 0-------- 0---- 0--|
B|------ 0---- 0---------- 0-- 0 1|------ 1---- 1-------- 1--------|
G|------ 0---- 0---------- 0-- 0--| 2---- 2---- 2------ 2 2--------|
D|---- 2-------------- 2----------|--------------------------------|
A| 3-------------- 3--------------|--------------------------------|
E|--------------------------------| 1-------------- 1--------------|

E| 0---- 0---------------------- 5|---- 8-------- 8------ 8--------|
B| 0---- 0------ 7------ 9------ 5|---- 5---- 5-- 5------ 7--------|
G| 2---- 2------ 7------ 7------ 5|------ 5------ 5------ 8--------|
D|-------------- 7------ 6--------|--------------------------------|
A|-------------- 7----------------|-------------- 7------ 6------ 5|
E| 0------------ 7-------- 6---- 5|--------------------------------|

E| 6-- 8------ 8 8----------------|------10------ 8-------------- 8|
B| 6-- 6------ 7 6----------------|11--1111------ 9--------11----10|
G| 7-- 7------ 8 7--------10------| 9-- 9-- 9---- 9------ 9 9---- 9|
D|------------ 6-- 5------ 9------| 8-- 8----------------11--------|
A|-------- 5----------------------|-------------- 9-------- 9---- 8|
E|------------------------ 9------| 8------------------------------|

E|---- 810------12----10----------|------------------------------ 3|
B|----1010------10----10----------|---- 3 5---- 6-------- 3------ 0|
G|------ 9------10----10----------|---- 5 5---- 5-------- 5--------|
D|--------------10----------------|---- 3 3---- 3------ 3----------|
A|--------------------------------|--------------------------------|
E|---------------------- 8---- 5 4|-------------- 4----------------|

E|--------------------------------| 5------------------------------|
B|---------- 0---------- 5--------| 5---------------------- 1---- 8|
G|------ 0-------------- 4------ 5|---- 5---- 5-------- 5-- 2------|
D|---- 0-------------- 2----------|-------- 5-- 5------ 5-- 2------|
A|------------ 2------------------|--------------------------------|
E| 0-------------- 3------------ 5|-------------- 3-------- 2------|

E|------------------------------ 5|--------------------------------|
B|------------ 8-------- 5------ 5|-------- 1------ 3-- 1-- 3-- 1--|
G| 5---- 5-------------- 5------ 5|-------- 2------ 2-- 2-- 1-- 1--|
D| 7-- 7-------------- 5-------- 3|-------- 2------ 3-- 3-- 3------|
A| 5------------ 7----------------|-------------------- 0-- 2------|
E|--------------------------------|-------- 2------ 3--------------|

E|------ 0---- 0-------- 0---- 0--|------ 0---- 0---------- 0---- 5|
B|------ 0---- 0-------- 0---- 0--|------ 1---- 1------ 3-- 1---- 5|
G|------ 0---- 0------ 0 0---- 0--|---- 2 2---- 2------ 2-- 2------|
D|---- 2--------------------------|--------------------------------|
A| 3------------ 3----------------|--------------------------------|
E|--------------------------------| 1-------------- 1--------------|

E|---- 5--------------------------|--------------------------------|
B|---- 5-------------- 3------ 3--|---- 3 3---- 3------ 1 3--------|
G| 5-- 5---- 2-- 5------------ 1--|---- 1 1---- 1------ 1 1--------|
D| 3-------- 2 2 3------------ 3--|---- 3 3---- 3------ 3 3--------|
A|---------------------------- 1--|--------------------------------|
E|-------- 3---- 5----------------|-------------- 1----------------|

E|------ 0---- 0---------- 0-- 0--|------ 0---- 0-------- 0---- 0--|
B|------ 0---- 0---------- 0-- 0 1|------ 1---- 1-------- 1--------|
G|------ 0---- 0---------- 0-- 0--| 2---- 2---- 2------ 2 2--------|
D|---- 2-------------- 2----------|--------------------------------|
A| 3-------------- 3--------------|--------------------------------|
E|--------------------------------| 1-------------- 1--------------|

E| 0---- 0---------------------- 5|---- 8-------- 8------ 8--------|
B| 0---- 0------ 7------ 9------ 5|---- 5---- 5-- 5------ 7--------|
G| 2---- 2------ 7------ 7------ 5|------ 5------ 5------ 8--------|
D|-------------- 7------ 6--------|--------------------------------|
A|-------------- 7----------------|-------------- 7------ 6------ 5|
E| 0------------ 7-------- 6---- 5|--------------------------------|

E| 6-- 8------ 8 8----------------|------10------ 8-------------- 8|
B| 6-- 6------ 7 6----------------|11--1111------ 9--------11----10|
G| 7-- 7------ 8 7--------10------| 9-- 9-- 9---- 9------ 9 9---- 9|
D|------------ 6-- 5------ 9------| 8-- 8----------------11--------|
A|-------- 5----------------------|-------------- 9-------- 9---- 8|
E|------------------------ 9------| 8------------------------------|

E|---- 810------12----10----------|------------------------------ 3|
B|----1010------10----10----------|---- 3 5---- 6-------- 3------ 0|
G|------ 9------10----10----------|---- 5 5---- 5-------- 5--------|
D|--------------10----------------|---- 3 3---- 3------ 3----------|
A|--------------------------------|--------------------------------|
E|---------------------- 8---- 5 4|-------------- 4----------------|

E|--------------------------------| 5------------------------------|
B|---------- 0---------- 5--------| 5---------------------- 1---- 8|
G|------ 0-------------- 4------ 5|---- 5---- 5-------- 5-- 2------|
D|---- 0-------------- 2----------|-------- 5-- 5------ 5-- 2------|
A|------------ 2------------------|--------------------------------|
E| 0-------------- 3------------ 5|-------------- 3-------- 2------|

E|------------------------------ 5|--------------------------------|
B|------------ 8-------- 5------ 5|-------- 1------ 3-- 1-- 3-- 1--|
G| 5---- 5-------------- 5------ 5|-------- 2------ 2-- 2-- 1-- 1--|
D| 7-- 7-------------- 5-------- 3|-------- 2------ 3-- 3-- 3------|
A| 5------------ 7----------------|-------------------- 0-- 2---- 3|
E|--------------------------------|-------- 2------ 3--------------|

E|------ 0---- 0-------- 0--------|-- 8------ 7 5------------------|
B|------ 0---- 0-------- 0---- 5--|---- 5------ 5 5 8-- 6---- 5 5 5|
G|------ 0---- 0---------- 0-- 5--|-- 5------ 5 5-- 5-- 5---- 5 7 5|
D|---- 2-------------- 2------ 7--|-- 5------------ 5-- 5---- 5 5 5|
A|-------------- 3------------ 8--|--------------------------------|
E|--------------------------------|------------------------------ 8|

E|--------------------------------|-------- 8------ 7-- 5----------|
B|-------- 5-- 5-------- 5---- 5--|-------- 5------ 5-- 5---- 8 6--|
G|-------- 5-- 5-------- 5---- 5--|-------- 5------ 5-- 5---- 5 5--|
D|---- 5-- 5-- 5------ 5 5---- 7--|------ 5------------------ 5 5--|
A|---------------------------- 8--|--------------------------------|
E|---------------- 8--------------|--------------------------------|

E|--------------------------------|--------------------------------|
B| 5------ 5------ 5---- 7--------| 8---- 8------------ 8-- 7---- 5|
G| 5------ 5------ 7---- 7--------| 5---- 5------------ 5 5------ 5|
D| 5-- 5-- 5------ 5-- 5 5------ 5|---- 5------ 5---- 5-- 5------ 5|
A|--------------------------------|--------------------------------|
E| 8-------------- 7------------ 5|-------------- 5-------------- 5|

E|-------------- 5----------------|-------------------- 7----------|
B|------ 5------ 5---- 7------ 3--|------ 3------ 7---- 7------ 7--|
G|------ 5------ 5---- 5------ 4--|------ 4------ 7------------ 7--|
D|------ 5------------ 4------ 4--| 4---- 4-------- 5--------------|
A|-------------- 5----------------|--------------------------------|
E|-------------------- 4------ 3--|--------------------------------|

E| 7------------------------------|--------------------------------|
B| 6------------------------------|-------------- 6-- 5 3----------|
G| 7------------------------------|--------------------------------|
D| 5------------------------------| 5------------------------------|
A|--------------------------------|------------------------------ 3|
E|--------------------------------|--------------------------------|

E|------ 0---- 0-------------- 0--|--------------------------------|
B|------ 0---- 0-------- 3---- 0--|--------------------------------|
G|-------- 0-- 0-------- 0---- 0--|--------------------------------|
D|---- 2-------------- 2----------|--------------------------------|
A|-------------- 3----------------|--------------------------------|
E|---------------------------- 1--|--------------------------------|





Comments


Popular Burt Bacharach tabs & chords
From Rocking Horse To Rocking Chair Chords
I'll Never Fall In Love Again 2 Chords
Ill Never Fall In Love Again 4 Chords
Its Love That Really Counts Chords
Kentucky Bluebird (Send A Message To Martha) Chords
Take A Broken Heart Chords
Trains And Boats And Planes Chords
Wanting Things Chords
Beware Of The Blob Tabs
Long Ago Tomorrow Ukulele


Song lyrics



↑ Back to top | Tablatures and chords are parodies/interpretations of the original songs. You may use it for private study, scholarship, research or language learning purposes only
© 2014 AZChords.com Contact us | Privacy policy | DMCA | Add/correct tabs | Request tabs | Top 50 tabs