>
 >
Raindrops Keep Falling On My Head

Raindrops Keep Falling On My Head Guitar Tabs

Burt Bacharach - Raindrops Keep Falling On My Head chords, tabs, tablatures, lyrics

Guitar lessons | Add/correct | Request | Top 50 tabs Artists:  A B C D E F G H I J K L M N O P Q R S T U V W X Y Z 0-9

Raindrops Keep Falling On My Head Guitar Tabs – Burt Bacharach

CD, Sheet music, Poster

Do you like Raindrops Keep Falling On My Head? Share with your friends now
Tabs

Tuning: EADGBE  Time Signature: 4/4
Plenty of work for your little finger (pinky)
Where possible, hold the chord and play the subsequent single notes.

 C       |       |       |        Cmaj7   |       |       |        
|0-------0---0---1---0-----------|0-------------------------------|
|1-----------------------3---1---|0-------------------------------|
|0-------------------------------|0-----------------------0-------|
|2-------------------------------|2-------------------------------|
|3-------------------------------|3-------------------------------|
|--------------------------------|--------------------------------|

 C7      |       A# maj13|        Fmaj7   F       |       |        
|3-------3---3---5---3-----------|0-------1-----------------------|
|5---------------3-------6---5---|1-------1-------3-------1-------|
|3---------------3---------------|2-------2-----------------------|
|5---------------5---------------|3-------3-----------------------|
|3---------------3---------------|--------------------------------|
|--------------------------------|--------------------------------|

 Em7     |       A7      |        Em7     |       A7      |        
|7---------------5---------------|7---------------5---------------|
|8---------------5---8---5-------|8---------------5---------------|
|7---------------6-----------6---|7---------------6---------------|
|9---------------5---------------|9---------------5---------------|
|7---------------7---------------|7---------------7---------------|
|--------------------------------|--------------------------------|

 D7sus4  |       Dm7     |        D7sus4  |     Dm7   D7sus4       
|3-------3---0---1---3---1---0---|3-------3---0---1---3-----------|
|1---------------1---------------|1---------------1---1-----------|
|2---------------2---------------|2---------------2---2-----------|
|0---------------0---------------|0---------------0---0-----------|
|--------------------------------|--------------------------------|
|--------------------------------|--------------------------------|

 |       G7      |       |        C       |       |       |        
|--------------------------------|0-----------------------3-------|
|--------0-------1-------3-------|1-------------------------------|
|--------0-----------------------|0-------------------------------|
|--------3-----------------------|2-------------------------------|
|--------2-------0-------2-------|3-------------------------------|
|--------3-----------------------|--------------------------------|

 C9      |       |       |        Dm7     |       |       |        
|------------------------0-------|--------------------------------|
|3-------------------------------|6-------5-----------------------|
|3-------------------------------|5---------------7-------5-------|
|2-------------------------------|7-------------------------------|
|3-------------------------------|5-------------------------------|
|--------------------------------|--------------------------------|

 | G7    |       |       |        Dm6     Em7     |       |        
|0---------------0-------1-------|5-------3-------3-------0-------|
|0-------3-----------------------|3-------3-------3---------------|
|0-------------------------------|4-------4-------4---------------|
|3-------------------------------|3-------2-------2---------------|
|2-------------------------------|--------------------------------|
|3-------------------------------|--------------------------------|

 A       A7      |       |        Em7     |       |       A7       
|5-------3-------3-------0-------|7-------------------------------|
|5-------2-------2---------------|8-------10------8-------5-------|
|6-------2-------2---------------|7-----------------------6-------|
|7-------2-------2---------------|9-----------------------5-------|
|--------------------------------|7-----------------------7-------|
|--------------------------------|--------------------------------|

 | Am11  |       |       |        Fmaj7   |       G7      |        
|--------------------------------|0-------------------------------|
|----3-----------3-------3-------|1---------------3---------------|
|----5-----------5-------5-------|2---------------4---------------|
|----3-----------3-------3-------|3---------------3---------------|
|--------------------------------|----------------5---------------|
|5-----------5-------------------|--------------------------------|

 |       F       G       |        |       F       G       |        
|--------------------------------|--------------------------------|
|--------1-------3---------------|--------1-------3---------------|
|--------2-------4---------------|--------2-------4---------------|
|--------3-------5---------------|--------3-------5---------------|
|--------4-------5---------------|--------4-------5---------------|
|--------------------------------|--------------------------------|

 C       |       |       |        Cmaj7   |       |       |        
|0-------0---0---1---0-----------|0-------------------------------|
|1-----------------------3---1---|0-------------------------------|
|0-------------------------------|0-----------------------0-------|
|2-------------------------------|2-------------------------------|
|3-------------------------------|3-------------------------------|
|--------------------------------|--------------------------------|

 C7      |       A# maj13|        Fmaj7   F       |       |        
|3-------3---3---5---3-----------|0-------1-----------------------|
|5---------------3-------6---5---|1-------1-------3-------1-------|
|3---------------3---------------|2-------2-----------------------|
|5---------------5---------------|3-------3-----------------------|
|3---------------3---------------|--------------------------------|
|--------------------------------|--------------------------------|

 Em7     |       A7      |        Em7     |       A7      |        
|7---------------5---------------|7---------------5---------------|
|8---------------5---8---5-------|8---------------5---------------|
|7---------------6-----------6---|7---------------6---------------|
|9---------------5---------------|9---------------5---------------|
|7---------------7---------------|7---------------7---------------|
|--------------------------------|--------------------------------|

 D7sus4  |       Dm7     |        D7sus4  |     Dm7   D7sus4       
|3-------3---0---1---3---1---0---|3-------3---0---1---3-----------|
|1---------------1---------------|1---------------1---1-----------|
|2---------------2---------------|2---------------2---2-----------|
|0---------------0---------------|0---------------0---0-----------|
|--------------------------------|--------------------------------|
|--------------------------------|--------------------------------|

 |       G7      |       |        C       |       Cmaj7   |        
|--------------------------------|0---------------0---------------|
|--------0-------1-------3-------|1---------------0---------------|
|--------0-----------------------|0---------------0---------------|
|--------3-----------------------|2---------------2---------------|
|--------2-------0-------2-------|3---------------3---------------|
|--------3-----------------------|--------------------------------|

 Fmaj7   |       Fmaj7   |        C       |       Cmaj7   |        
|0---------------5---3-----------|0---------------0---------------|
|1-------1---1---5---------------|1---------------0---------------|
|2---------------5-------5-------|0---------------0---------------|
|3---------------3---------------|2---------------2---------------|
|--------------------------------|3---------------3---------------|
|--------------------------------|--------------------------------|

 Fmaj7   |       Dm7     |        G7sus4  |       |       |        
|0---------------5---------------|--------------------------------|
|1-------1---1---6---8-----------|--------------------------------|
|2---------------5-------5-------|------------------------5-------|
|3---------------7---------------|----------------3---------------|
|----------------5---------------|--------5-----------------------|
|--------------------------------|3-------------------------------|

 Cmaj7   |       |       |        
|0-------------------------------|
|0-------------------------------|
|0-------------------------------|
|2-------------------------------|
|3-------------------------------|
|--------------------------------|





Comments


Popular Burt Bacharach tabs & chords
From Rocking Horse To Rocking Chair Chords
I'll Never Fall In Love Again Chords
Long Ago Tomorrow Chords
Take A Broken Heart Chords
Walk On By Chords
What's New, Pussycat? Chords
Kentucky Bluebird Send A Message To Martha Ukulele
Raindrops Keep Fallin On My Head Ukulele
Take A Broken Heart Ukulele
The Love Of A Boy Ukulele


Song lyrics



↑ Back to top | Tablatures and chords are parodies/interpretations of the original songs. You may use it for private study, scholarship, research or language learning purposes only
© 2014 AZChords.com Contact us | Privacy policy | DMCA | Add/correct tabs | Request tabs | Top 50 tabs