» » »

Our House Tabs (ver.1)

Artists:  A B C D E F G H I J K L M N O P Q R S T U V W X Y Z # 

Our House Tabs (ver.1)

Burn Halo
Rating:
0/5 (0 votes)
Tabs too difficult? Try these video lessons and learn fast.
                E|---------------------------------------------------------|
B|---------------13b15-13-------------------(  )-----------|
G|--12b14-12br14----------10----10h12p10----(x2)-----------|
D|---------------------------12----------12-(  )-----------|
A|---------------------------------------------------------|
D|---------------------------------------------------------|

E|---------------------------------------------------------|
B|------13--13--13-------13b15-13--------------------------|
G|-12b14--12--12--12br14----------10----10h12p10-----------|
D|-----------------------------------12----------12--------|
A|---------------------------------------------------------|
D|---------------------------------------------------------|

E|----------------------------------------------------------|
B|-------------------------------------------------10-13b15-|
G|-----------------/10-10-10-10-10-/12-12-12-12-12----------|
D|-/12-12-12-12-12------------------------------------------|
A|----------------------------------------------------------|
D|----------------------------------------------------------|

E|-10--13--12h13p12-10----------------10--12--13b15--------|
B|---------------------13b15-13-10-13---10--10-------------|
G|---------------------------------------------------------|
D|---------------------------------------------------------|
A|---------------------------------------------------------|
D|---------------------------------------------------------|
(not quite sure from here on..)
E|---------------------------------------------------------|
B|---------------------------------------------------------|
G|-5/7-7-7-7/9-9-9-9/10101010/12--14-10101010-12-12-12-----|
D|---------------------------------------------------------|
A|-3/5-5-5-5/7-7-7-7/8-8-8-8-/10--12/8-8-8-8--10-10-10-----|
D|---------------------------------------------------------|

then just ascend in the D natural minor/minor pentatonic scale somthing like this

E|---------------------------------------------------------------------------|
B|---------------------------------------------------------------------------|
G|--------------------------------------------------------9-10-12-9-10-12----|
D|----------------------------------------8-10-12-8-10-12--------------------|
A|------------------------8-10-12-8-10-12------------------------------------|
D|-6-8-10-8-10-12-8-10-12----------------------------------------------------|

E|--------------------|
B|-10-11-13-13h15-----|
G|--------------------|
D|--------------------|
A|--------------------|
D|--------------------|
            
Tabs too difficult? Try these video lessons and learn fast.


comments powered by Disqus
↑ Back to top | Tablatures and chords are parodies/interpretations of the original songs. You may use it for private study, scholarship, research or language learning purposes only