» » »

Our House Tabs (ver.2)

Artists:  A B C D E F G H I J K L M N O P Q R S T U V W X Y Z # 

Our House Tabs (ver.2)

Burn Halo
Rating:
0/5 (0 votes)

Hard to play? Try these video lessons and learn fast.
                Just wanted to get this tab up quick (i know its not finished) to let you guys
have a rough sketch of how the song goes. :)

Song is played in Drop D (D,A,D,G,B,e)

Intro

[--------------------------------]
[--------------------------------]
[--------------------------------]
[-0-3p0---3-3p0---3-3-4-5-0------]
[-0-----3-3-----3-3-3-4-5-0------]
[-0-------3-------3-3-4-5-0------] repeat 4x

Verse 1
(all palm muted!!!)

[---------------------------------]
[---------------------------------]
[---------------------------------]
[-0-3-0-3---0-3-0-3-0-3p2p1p0-----]
[-0-3-0-3---0-3-0-3-0-3p2p1p0-----]
[-0-3-0-3---0-3-0-3-0-3p2p1p0-----] repeat 8x

Pre-chorus

[---------------------------------]
[---------------------------------]
[---------------------------------]
[-3h4h5---1h2h3-------------------]
[-3h4h5---1h2h3-------------------]
[-3h4h5---1h2h3-------------------] Let the 5 and 3 ring or strum them a few

Chorus

[-----------------------------------------------]
[-----------------------------------------------]
[------5555---------------5555------------------]
[-0000-5555-55555533-0000-5555-55555533-3-5-----]
[-0000-3333-55555533-0000-3333-55555533-3-5-----]
[-0000------55555533-0000------55555533-3-5-----]
(You can strum the ending 3 and 5 8x each if you want)

[--------------------------------]
[--------------------------------]
[--------------------------------]
[-0-3p0---3-3p0---3-3-4-5-0------]
[-0-----3-3-----3-3-3-4-5-0------]
[-0-------3-------3-3-4-5-0------] Repeat 4x

THATS IT FOR NOW, ILL HAVE THE REST UP BY THE END OF THE WEEK! Don't complain LISTEN TO 
SONG!!!
            
Hard to play? Try these video lessons and learn fast. | Correct




comments powered by Disqus
↑ Back to top | Tablatures and chords are parodies/interpretations of the original songs. You may use it for private study, scholarship, research or language learning purposes only