» » »

Burn Halo, Here With Me Tabs (ver.1)

Artists:  A B C D E F G H I J K L M N O P Q R S T U V W X Y Z # 

Here With Me Tabs (ver.1)

Burn Halo Tabs
 Rating:
4/5 (4 votes)
Here With Me lessons Tabs too difficult? Try these video lessons and learn fast
                
This is my first tab ever so dont complain over small pieces that are wrong, if their is any :D

And im not sure about the strumming but you figure it out.

PLZ comment it :D


Solo intro

e|--------------------------------------|
b|--15----------------------------------|
g|-----12-16-12-16-17-16-14-12----------| X2
d|--------------------------------------|
a|--------------------------------------|
D|--------------------------------------|

Then at third time like this
e|----------------------------------------|
b|-15-----------------------------------8-|
g|----12-16-12-16-17-16-14-12-7-9-7-5-4---|
d|----------------------------------------|
a|----------------------------------------|
D|----------------------------------------|


Intro:

e|-----------------------------------------------------------------------------|
b|-----------------------------------------------------------------------------|
g|-----------------------------------------------------------------------------|
d|-----------------------------------------------------------------------------|
a|-55555555555555-101010101010101010101010101010-77777777777777-55555555555555-|
D|-55555555555555-101010101010101010101010101010-77777777777777-55555555555555-|

Play intro over again and just mute it

Verse:
 P.M------------ P.M-------------------------- P.M------------ P.M--------------|
e|------------------------------------------------------------------------------|
b|------------------------------------------------------------------------------|
g|------------------------------------------------------------------------------| X2
d|------------------------------------------------------------------------------|
a|-55555555555555-101010101010101010101010101010-77777777777777-55555555555555--|
D|-55555555555555-101010101010101010101010101010-77777777777777-55555555555555--|

Pre Chorus:

e|------------------------------------------------------------------|
b|------------------------------------------------------------------|
g|------------------------------------------------------------------|
d|------------------------------------------------------------------|
a|--101010101010101010101010101010-12121212121212121212121212121212-|
D|--101010101010101010101010101010-12121212121212121212121212121212-|

Chorus:

e|---------------------------------------------------------------------|
b|---------------------------------------------------------------------|
g|---------------------------------------------------------------------|
d|--1212121212121212-77777777-99999999-55555555------------------------| X2
a|--1010101010101010-55555555-77777777-33333333------------------------|
D|---------------------------------------------------------------------|

Play intro + verse + pre chorus again then chorus


Bridge:

e|-----------------------------------------------------------|
b|-----------------------------------------------------------|
g|-----------------------------------------------------------|
d|-99999999999999-77777777777777-55555555555555--------------| X2
a|-77777777777777-55555555555555-33333333333333--------------|
D|-----------------------------------------------------------|

Solo:

e|------------------------------------------------------------|
b|------------------------------------------------------------|
g|------------------------------------------------------------|
d|-121212121212121212-777777777-9999-7777-5555----------------| X2
a|-101010101010101010-555555555-7777-5555-3333----------------|
D|------------------------------------------------------------|

Then go back to play chorus for the rest of the song

Good luck!

| /  slide up
| \  slide down
| h  hammer-on
| p  pull-off
| ~  vibrato
| +  harmonic
| x  Mute note
            
Submit corrections

comments powered by Disqus
↑ Back to top | Burn Halo Tabs for Here With Me. Lyrics for acoustic guitar and electric guitar. Tablatures and chords are parodies/interpretations of the original songs. You may use it for private study, scholarship, research or language learning purposes only