» » »

Gasoline Tabs (ver.1)

Artists:  A B C D E F G H I J K L M N O P Q R S T U V W X Y Z # 

Gasoline Tabs (ver.1)

Burn Halo
Rating:
0/5 (0 votes)

Tabs too difficult? Try these video lessons and learn fast.
                This is my first tab so it may not be spot on but for the most part i think its
pretty accurate. feel free to rate and comment

Intro: ( X 4 )

e|-------------------------------------------------------|
B|-------------------------------------------------------|
G|-------------------------------------------------------|
D|-------------------------------------------------------|
A|5--55--4-44--5-xx--------------------------------------|
D|0--00--0-00--0-xx--------------------------------------|
     pm    pm

First Solo:

e|-----------------------------------------------------------------------|
B|-----------------------------------------------------------------------|
G|-----------------------------------------------19~---------------------|
D|12-16b-16~-14-12-14-16-16b-16~-14-12-14-16-16b---16b-16-14-12-14~------|
A|-----------------------------------------------------------------------|
D|-----------------------------------------------------------------------|

e|-----------------------------------------------------------------------|
B|-----------------------------------------------------------------------|
G|-----------------------------------------------------------------------|
D|14-14~-14-14-12-11-12~-------------------------------------------------|
A|-----------------------------------------------------------------------|
D|-----------------------------------------------------------------------|

Verse: ( X 2 )

e|-------------------------------------------------------------------------|
B|-------------------------------------------------------------------------|
G|-------------------------------------------------------------------------|
D|-------------------------------------------------------------------------|
A|5-55-5-55-5-xx-5-55-5-55-5-xx-4-44-4-44-4-xx-4-44-4-44-4-xx-5-55-5-55-5--|
D|0-00-0-00-0-xx-0-00-0-00-0-xx-0-00-0-00-0-xx-0-00-0-00-0-xx-5-55-5-55-5--|
    pm   pm        pm   pm        pm   pm        pm   pm        pm   pm

e|-------------------------------------------------------------------|
B|-------------------------------------------------------------------|
G|-------------------------------------------------------------------|
D|-----------------------------------(end with this the second time)-|
A|xx-5-55-5-55-5-xx-5555544455555444----------(7 X16)----------------|
D|xx-5-55-5-55-5-xx-0000000000000000----------(7----)----------------|
       pm   pm                                 pm (release palm mute gradually)

Chorus:

e|-----------------------------------------------------------------------|
B|-----------------------------------------------------------------------|
G|12br-12-11--------------------12br-12~-11br-9-11~----------------------|
D|----------12-11-12-14-12(X 2)------------------------------------------|
A|-----------------------------------------------------------------------|
D|-----------------------------------------------------------------------|

Verse: ( X 2 )

e|-------------------------------------------------------------------------|
B|-------------------------------------------------------------------------|
G|-------------------------------------------------------------------------|
D|-------------------------------------------------------------------------|
A|5-55-5-55-5-xx-5-55-5-55-5-xx-4-44-4-44-4-xx-4-44-4-44-4-xx-5-55-5-55-5--|
D|0-00-0-00-0-xx-0-00-0-00-0-xx-0-00-0-00-0-xx-0-00-0-00-0-xx-5-55-5-55-5--|
    pm   pm        pm   pm        pm   pm        pm   pm        pm   pm

e|-------------------------------------------------------------------|
B|-------------------------------------------------------------------|
G|-------------------------------------------------------------------|
D|-----------------------------------(end with this the second time)-|
A|xx-5-55-5-55-5-xx-5555544455555444----------(7 X16)----------------|
D|xx-5-55-5-55-5-xx-0000000000000000----------(7----)----------------|
       pm   pm                                 pm (release palm mute gradually)

Chorus: ( X 2 )

e|-----------------------------------------------------------------------|
B|-----------------------------------------------------------------------|
G|12br-12-11--------------------12br-12~-11br-9-11~----------------------|
D|----------12-11-12-14-12(X 2)------------------------------------------|
A|-----------------------------------------------------------------------|
D|-----------------------------------------------------------------------|

Solo:


e|-----------------------------------------------------------------------|
B|----------------15-14-15-12-12-14-12-10~-------------------------------|
G|12-14-16~-14-16-------------------------/14-12-11h12p11p9-9~-11-12~----|
D|-----------------------------------------------------------------------|
A|-----------------------------------------------------------------------|
D|-----------------------------------------------------------------------|

e|-----------------------------------------------------------------------|
B|------15-15-15h17~-15-17/20-19-17-15-17-19-17-19/22~-------------------|
G|12-14------------------------------------------------------------------|
D|-----------------------------------------------------------------------|
A|-----------------------------------------------------------------------|
D|-----------------------------------------------------------------------|

Bridge: ( X 2 )

e|----------------------------------------------------------------------|
B|----------------------------------------------------------------------|
G|----------------------------------------------------------------------|
D|--5-4-2---4-2-----5-4-2---4-2-----7-5-4---5-4-----7-5-4---5-4---------|
A|0-------5-----5-0-------5-----5-0-------7-----7-0-------7-----7-------|
D|----------------------------------------------------------------------|

Pre-Chorus:

e|-----------------------------------------------------------------------|
B|-----------------------------------------------------------------------|
G|-----------------------------------------------------------------------|
D|-----------------------------------------------------------------------|
A|5~~~~~~~~~-4~~~~~~~~~-5~~~~~~~~~--7777777777777777---------------------|
D|0~~~~~~~~~-0~~~~~~~~~-5~~~~~~~~~--7777777777777777---------------------|
                                     pm (gradually release palm mute)

Chorus: ( X 2 )

e|-----------------------------------------------------------------------|
B|-----------------------------------------------------------------------|
G|12br-12-11--------------------12br-12~-11br-9-11~----------------------|
D|----------12-11-12-14-12(X 2)------------------------------------------|
A|-----------------------------------------------------------------------|
D|-----------------------------------------------------------------------|

End with this
e|-----------------------------------------------------------------------|
B|-----------------------------------------------------------------------|
G|-----------------------------------------------------------------------|
D|-----------------------------------------------------------------------|
A|7-77-7-77-7-7---0~~~~~~~-----------------------------------------------|
D|7-77-7-77-7-7---0~~~~~~~-----------------------------------------------|
    pm   pm   pm
            
Tabs too difficult? Try these video lessons and learn fast.




comments powered by Disqus
↑ Back to top | Tablatures and chords are parodies/interpretations of the original songs. You may use it for private study, scholarship, research or language learning purposes only