» » »

Dirty Little Girl Tabs (ver.1)

Artists:  A B C D E F G H I J K L M N O P Q R S T U V W X Y Z # 

Dirty Little Girl Tabs (ver.1)

Burn Halo
Rating:
0/5 (0 votes)

Hard to play? Try these video lessons and learn fast.
                (Intro)
Burn Halo
Dirty Little Girl

Intro:
e|----------------------------------------------------|
B|----------------------------------------------------|
G|----------------------------------------------------|
D|----------------------------------------------------|
A|-0-3p0-3~-3------------0----0-3p0-3~-3------6-5-3-0-|
D|-0---------6-5-6-5-3-5-0----0---------6-5-6-------0-|

Verse:
e|----------------------------------------------------|
B|----------------------------------------------------|
G|----------------------------------------------------|
D|----------------------------------------------------|
A|-0-0-00--0-0-00--0-0-00----3------------------------|
D|-0-0-00--0-0-00--0-0-00------6-5-6-5-3-5------------|
            
Hard to play? Try these video lessons and learn fast. | Correct




comments powered by Disqus
↑ Back to top | Tablatures and chords are parodies/interpretations of the original songs. You may use it for private study, scholarship, research or language learning purposes only