>
 >
Dirty Little Girl

Dirty Little Girl Guitar Tabs

Burn Halo - Dirty Little Girl chords, tabs, tablatures, lyrics

Guitar lessons | Add/correct | Request | Top 50 tabs Artists:  A B C D E F G H I J K L M N O P Q R S T U V W X Y Z 0-9

Dirty Little Girl Guitar Tabs – Burn Halo

CD, Sheet music, Poster

Do you like Dirty Little Girl? Share with your friends now
Tabs
I couldn't find a nice tab on here so I tried my best to figure the song out by 
myself. I think it sounds right. Solo will be added in some days/weeks. I set it 
as intermediate because some parts aren't very comfortable to play + solo will be added. Thanks :P


Song is played in Drop D


Intro: ( First bar is the main riff)

e|-------------------------------------------------------  \                 
B|-------------------------------------------------------   \       
G|-------------------------------------------------------    \ x 2     
D|-------------------------------------------------------    / 
A|-----3p0-3~--------------------3p0-3~---------3-4-5----   /
D|0--0-------6-5-3-0-3-5-6-0--0---------6-5-3-0-------0--  /

                          

e|-------------------------------------------------------------------  \  
B|-------------------------------------------------------------------   \
G|-------------------------------------------------------------------    \x 2
D|-------------------------------------------------------------------    /
A|0--0-10-12-10~--6-5-3-0-3-5-6-0-----10-12-10~--6-5-3-0-10-11-12----   /
D|0--0-10-12-10~--6-5-3-0-3-5-6-0--0--10-12-10~--6-5-3-0-10-11-12----  /


Verse:

e|------------------------------------------- \
B|-------------------------------------------  \
G|-------------------------------------------   \ x4  Leave the last D5 
D|-------------------------------------------   /     out the last time
A|0--0--0--s3--6-5-3-0-5-3-0-----------------  /
D|0--0--0------6-5-3-0-5-3-0----------------- /

Pre-Chorus:

e|-----------------------------------------------------------------------|
B|-----------------------------------------------------------------------|  
G|-----------------------------------------------------------------------|  
D|-----------------------------------------------------------------------|   
A|7-7-7--7--7--7-7-7--7--7--7--5-0-5-0-5-0-5-0-5-0-5-0-5-0-5-0-5-0-5-0---|
D|7-7-7--7--7--7-7-7--7--7--7--5-0-5-0-5-0-5-0-5-0-5-0-5-0-5-0-5-0-5-0---|

e|-----------------------------------------------------------------------|
B|-----------------------------------------------------------------------|  
G|-----------------------------------------------------------------------|  
D|-----------------------------------------------------------------------|   
A|7-7-7--7--7--7-7-7--7--7--7--10-10-10-10-10-10-10-10-10-10-10-10-10----|
D|7-7-7--7--7--7-7-7--7--7--7--10-10-10-10-10-10-10-10-10-10-10-10-10----|

Chorus:

e|-------------------------------------------------------------------------------|
B|-------------------------------------------------------------------------------|  
G|-------------------------------------------------------------------------------|  
D|-------------------------------------------------------------------------------|   
A|0-0-0-0-0-0-0-0--3-3-3-3-3-3-3-3--5-5-5-5-5-5-5-5--0-0-0-0---------0-0-0-0-xxxx|
D|0-0-0-0-0-0-0-0--3-3-3-3-3-3-3-3--5-5-5-5-5-5-5-5--0-0-0-0-3p0-3p0-0-0-0-0-xxxx|

e|-----------------------------------------------------------------------|
B|-----------------------------------------------------------------------|  
G|-----------------------------------------------------------------------|  
D|-----------------------------------------------------------------------|   
A|0-0-0-0-0-0-0-0--3-3-3-3-3-3-3-3--5-5-5-5-5-5-5-5--3-3-3-3-5-5-5-5-----|
D|0-0-0-0-0-0-0-0--3-3-3-3-3-3-3-3--5-5-5-5-5-5-5-5--3-3-3-3-5-5-5-5-----|

Fill:

e|-------------------------------------------------------  \                 
B|-------------------------------------------------------   \       
G|-------------------------------------------------------    \ x 2     
D|-------------------------------------------------------    / 
A|-----3p0-3~--------------------3p0-3~---------3-4-5----   /
D|0--0-------6-5-3-0-3-5-6-0--0---------6-5-3-0-------0--  /


Verse:

e|------------------------------------------- \
B|-------------------------------------------  \
G|-------------------------------------------   \ x4  Leave the last D5 
D|-------------------------------------------   /     out the last time
A|0--0--0--s3--6-5-3-0-5-3-0-----------------  /
D|0--0--0------6-5-3-0-5-3-0----------------- /

Pre-Chorus:

e|-----------------------------------------------------------------------|
B|-----------------------------------------------------------------------|  
G|-----------------------------------------------------------------------|  
D|-----------------------------------------------------------------------|   
A|7-7-7--7--7--7-7-7--7--7--7--5-0-5-0-5-0-5-0-5-0-5-0-5-0-5-0-5-0-5-0---|
D|7-7-7--7--7--7-7-7--7--7--7--5-0-5-0-5-0-5-0-5-0-5-0-5-0-5-0-5-0-5-0---|

e|-----------------------------------------------------------------------|
B|-----------------------------------------------------------------------|  
G|-----------------------------------------------------------------------|  
D|-----------------------------------------------------------------------|   
A|7-7-7--7--7--7-7-7--7--7--7--10-10-10-10-10-10-10-10-10-10-10-10-10----|
D|7-7-7--7--7--7-7-7--7--7--7--10-10-10-10-10-10-10-10-10-10-10-10-10----|

Chorus:

e|-------------------------------------------------------------------------------|
B|-------------------------------------------------------------------------------|  
G|-------------------------------------------------------------------------------|  
D|-------------------------------------------------------------------------------|   
A|0-0-0-0-0-0-0-0--3-3-3-3-3-3-3-3--5-5-5-5-5-5-5-5--0-0-0-0---------0-0-0-0-xxxx|
D|0-0-0-0-0-0-0-0--3-3-3-3-3-3-3-3--5-5-5-5-5-5-5-5--0-0-0-0-3p0-3p0-0-0-0-0-xxxx|

e|-----------------------------------------------------------------------|
B|-----------------------------------------------------------------------|  
G|-----------------------------------------------------------------------|  
D|-----------------------------------------------------------------------|   
A|0-0-0-0-0-0-0-0--3-3-3-3-3-3-3-3--5-5-5-5-5-5-5-5--3-3-3-3-5-5-5-5-----|
D|0-0-0-0-0-0-0-0--3-3-3-3-3-3-3-3--5-5-5-5-5-5-5-5--3-3-3-3-5-5-5-5-----|





Comments


Popular Burn Halo tabs & chords
Save Me Chords
Too Late To Tell You Now Chords
Dirty Little Girl 2 Tabs
Dirty Little Girl Intro Tabs
Gasoline Tabs
Here With Me Tabs
Our House Tabs
Our House 2 Tabs
Saloon Song Tabs
Save Me 2 Tabs


Song lyrics



↑ Back to top | Tablatures and chords are parodies/interpretations of the original songs. You may use it for private study, scholarship, research or language learning purposes only
© 2014 AZChords.com Contact us | Privacy policy | DMCA | Add/correct tabs | Request tabs | Top 50 tabs