>
 >
Dead End Roads & Lost Highways

Dead End Roads & Lost Highways Guitar Tabs

Burn Halo - Dead End Roads & Lost Highways chords, tabs, tablatures, lyrics

Guitar lessons | Add/correct | Request | Top 50 tabs Artists:  A B C D E F G H I J K L M N O P Q R S T U V W X Y Z 0-9

Dead End Roads & Lost Highways Guitar Tabs – Burn Halo

CD, Sheet music, Poster

Do you like Dead End Roads & Lost Highways? Share with your friends now
Tabs
Dead End Roads & Lost Highways by Burn Halo
Tuning- Drop D

I tabbed this by ear, it sounds pretty close to me. Please comment if there are any mistakes.



Intro
Lead
e|----------------------------------------------------------------------|2X
B|-----------------------------------12b13r12-10----12b13r12-10---------|
G|--10~---------10~------10~---10h12-12b13r12-10----12b13r12-10---------|
D|-----12~-10------12~------12~------------------12---------------------|
A|-----------12-------11------------------------------------------------|
D|----------------------------------------------------------------------|

Rhythm
e|----------------------------------------------------------------------|2X
B|----------------------------------------------------------------------|
G|----------------------------------------------------------------------|
D|-0-0-3-0-3h5-5-3-0-0-3-0----------0-0-3-0-3h5-5-3-5b6-3-0-5b6-3-------|
A|-0-0-3-0-3h5-5-3-0-0-3-0-5p3p0----0-0-3-0-3h5-5-3-5b6-3-0-5b6-3-------|
D|-0-0-3-0-3h5-5-3-0-0-3-0-------6~-0-0-3-0-3h5-5-3-5b6-3-0-5b6-3-------|

Verse
Both Guitars
e|-----------------------------------------------------------|2X
B|-----------------------------------------------------------|
G|-----------------------------------------------------------|
D|-0-0-3-0-0-5--0-0-3-0-0-5--0-0-3-0-0-5-5b6-3-0-5b6-3~------|
A|-0-0-3-0-0-5--0-0-3-0-0-5--0-0-3-0-0-5-5b6-3-0-5b6-3~------|
D|-0-0-3-0-0-5--0-0-3-0-0-5--0-0-3-0-0-5-5b6-3-0-5b6-3~------|
   * *   * *    * *   * *    * *   * *  

Pre-chorus
Both Guitars  
e|----------------------------|------------| On the second time around,
B|----------------------------|------------| the lead part plays this
G|----------------------------|------------| small bit.
D|-7-----------------------5--|---------3~-|
A|-7-----------------------5--|-3h5-3h5----|
D|-7-7-7-7-7-7-7-6-5-5-5-5-5--|------------|
     * * * * * * * * * * *

Chorus
Lead (Gradual bends)
e|-------------------------------------------------------------------------|
B|-3--------3--------6---------1--------3--------6---------11--------13----|
G|-5b7~-----5b7~-----8b10~-----3b5~-----5b7~-----8b10~-----13b15~----15b17~|
D|-------------------------------------------------------------------------|
A|-------------------------------------------------------------------------|
D|-------------------------------------------------------------------------|

Rhythm
e|-------------------------------------------------------------------------|
B|-------------------------------------------------------------------------|
G|-------------------------------------------------------------------------|
D|-0-0-0-0-0-0-0-0-5-5-5-5-5-5-5-5-3-3-3-3-3-3-3-3-3-5-5-5-5-5-5-5-5-------|
A|-0-0-0-0-0-0-0-0-5-5-5-5-5-5-5-5-3-3-3-3-3-3-3-3-3-5-5-5-5-5-5-5-5----3-5|
D|-0-0-0-0-0-0-0-0-5-5-5-5-5-5-5-5-3-3-3-3-3-3-3-3-3-5-5-5-5-5-5-5-5-3-5---|

e|-------------------------------------------------------------------------|
B|-------------------------------------------------------------------------|
G|-------------------------------------------------------------------------|
D|-0-0-0-0-0-0-0-0-5-5-5-5-5-5-5-5-8-8-10-7-8-8-10-7-10-10-10-10-10-10-10-10|
A|-0-0-0-0-0-0-0-0-5-5-5-5-5-5-5-5-8-8------8-8------10-10-10-10-10-10-10-10|
D|-0-0-0-0-0-0-0-0-5-5-5-5-5-5-5-5-8-8------8-8------10-10-10-10-10-10-10-10|

*Back to intro, verse, and chorus riffs.


Solo

Lead
e|--------------------------------------------------------------------------|
B|-13b15r13-13-10-10--13b15r13-13-10-10----12b13r12~--12b13r12-10-----------|
G|------------------12------------------12-12b13r12~--12b13r12-10-----------|
D|---------------------------------------------------------------12-10-12---|
A|--------------------------------------------------------------------------|
D|--------------------------------------------------------------------------|

Rhythm
e|--------------------------------------------------------------------------|
B|--------------------------------------------------------------------------|
G|--------------------------------------------------------------------------|
D|-0-0-0-0-0-0-0-0-0-0-0-0-0-0-0-0-5-5-5-5-5-5-5-5-5-5-5-5-5-5-5-5----------|
A|-0-0-0-0-0-0-0-0-0-0-0-0-0-0-0-0-5-5-5-5-5-5-5-5-5-5-5-5-5-5-5-5----------|
D|-0-0-0-0-0-0-0-0-0-0-0-0-0-0-0-0-5-5-5-5-5-5-5-5-5-5-5-5-5-5-5-5----------|

e|--------------------------------------------------------------------------|
B|-13b15r13-13-10-10--13b15r13-13-10-10-------------------------------------|
G|------------------12-----------------12-12b13r12~~-/12-10-9h109~~---------|
D|--------------------------------------------------------------------------|
A|--------------------------------------------------------------------------|
D|--------------------------------------------------------------------------|

e|--------------------------------------------------------------------------|
B|--------------------------------------------------------------------------|
G|--------------------------------------------------------------------------|
D|-0-0-0-0-0-0-0-0-0-0-0-0-0-0-0-0-5-5-5-5-5-5-5-5-3-3-3-3-3-3-3-3----------|
A|-0-0-0-0-0-0-0-0-0-0-0-0-0-0-0-0-3-3-3-3-3-3-3-3-3-3-3-3-3-3-3-3----------|
D|-0-0-0-0-0-0-0-0-0-0-0-0-0-0-0-0-----------------3-3-3-3-3-3-3-3----------|



e|----------------------------13-15b16r15-----------------------------------|
B|-13b15r13-13-10-10-12h13h15-------------18-17-17h18p17-15h17p15-13h15p13--|
G|--------------------------------------------------------------------------|
D|--------------------------------------------------------------------------|
A|--------------------------------------------------------------------------|
D|--------------------------------------------------------------------------|

e|--------------------------------------------------------------------------|
B|--------------------------------------------------------------------------|
G|--------------------------------------------------------------------------|
D|-0-0-0-0-0-0-0-0-0-0-0-0-0-0-0-0-5-5-5-5-5-5-5-5-5-5-5-5-5-5-5-5----------|
A|-0-0-0-0-0-0-0-0-0-0-0-0-0-0-0-0-5-5-5-5-5-5-5-5-5-5-5-5-5-5-5-5----------|
D|-0-0-0-0-0-0-0-0-0-0-0-0-0-0-0-0-5-5-5-5-5-5-5-5-5-5-5-5-5-5-5-5----------|

e|--------------------------------------------------13~-------13~-----------|
B|-12h13p12-10h12p10-8h10p8-6h8p6-5h6h8-/10~---13b14----13b14----13b14r13~--|
G|--------------------------------------------------------------------------|
D|--------------------------------------------------------------------------|
A|--------------------------------------------------------------------------|
D|--------------------------------------------------------------------------|

e|--------------------------------------------------------------------------|
B|--------------------------------------------------------------------------|
G|--------------------------------------------------------------------------|
D|-0-0-0-0-0-0-0-0-0-0-0-0-0-0-0-0-5-5-5-5-5-5-5-5-3-3-3-3-3-3-3-3----------|
A|-0-0-0-0-0-0-0-0-0-0-0-0-0-0-0-0-3-3-3-3-3-3-3-3-3-3-3-3-3-3-3-3----------|
D|-0-0-0-0-0-0-0-0-0-0-0-0-0-0-0-0-----------------3-3-3-3-3-3-3-3----------|

e|-------------------------------|
B|-------------------------------|
G|-------------------------------|
D|-/10~--------------------------|
A|------/11-10-9----------------|
D|---------------10~~~-----------|

Bridge
Both guitars
e|--------------------------------------------------------------------------|
B|--------------------------------------------------------------------------|
G|--------------------------------------------------------------------------|
D|-7-------------------7---------------------5-------------------5b6r5-3-0--|
A|-7-------------------7---------------------5-------------------5b6r5-3-0--|
D|-7-7-7-7-7-7-7-7777--7-7-7-7-7-7-7-7777----5-5-5-5-5-5-5-5555--5b6r5-3-0--|
     * * * * * * ****    * * * * * * ****      * * * * * * **** 
e|------------|
B|------------|
G|------------|
D|-5b6r5-3----|
A|-5b6r5-3----|
D|-5b6r5-3----|


This part is basically just the verse riff with some heavy distortion effect.
e|---------------------------------------------|
B|---------------------------------------------|
G|---------------------------------------------|
D|-0-0-3-0-0-5--0-0-3-0-0-5--0-0-3-0-0-5-------|
A|-0-0-3-0-0-5--0-0-3-0-0-5--0-0-3-0-0-5-------|
D|-0-0-3-0-0-5--0-0-3-0-0-5--0-0-3-0-0-5-------|
   * *   * *    * *   * *    * *   * *  


End Chorus

Lead (Gradual bends)
e|--------------------------------------------------------------------------|
B|-3--------3--------6---------1--------3--------6---------11---------13----|
G|-5b7~-----5b7~-----8b10~-----3b5~-----5b7~-----8b10~-----13b15~-----15b17~|
D|--------------------------------------------------------------------------|
A|--------------------------------------------------------------------------|
D|--------------------------------------------------------------------------|

Rhythm
e|--------------------------------------------------------------------------|
B|--------------------------------------------------------------------------|
G|--------------------------------------------------------------------------|
D|-0-0-0-0-0-0-0-0-5-5-5-5-5-5-5-5-3-3-3-3-3-3-3-3-3-5-5-5-5-5-5-5-5--------|
A|-0-0-0-0-0-0-0-0-5-5-5-5-5-5-5-5-3-3-3-3-3-3-3-3-3-5-5-5-5-5-5-5-5----3-5-|
D|-0-0-0-0-0-0-0-0-5-5-5-5-5-5-5-5-3-3-3-3-3-3-3-3-3-5-5-5-5-5-5-5-5-3-5----|

e|--------------------------------------------------------------------------|
B|--------------------------------------------------------------------------|
G|--------------------------------------------------------------------------|
D|-0-0-0-0-0-0-0-0-5-5-5-5-5-5-5-5-8-8-10-7-8-8-10-7-10-10-10-10-10-10-10-10|
A|-0-0-0-0-0-0-0-0-5-5-5-5-5-5-5-5-8-8------8-8------10-10-10-10-10-10-10-10|
D|-0-0-0-0-0-0-0-0-5-5-5-5-5-5-5-5-8-8------8-8------10-10-10-10-10-10-10-10|


This last part of the chorus is played a little differently.
Lead
e|--------------------------------------------------------------------------|
B|-11----------9-----------11----------13-----------------------------------|
G|-13b15~------11b13~------13b15~------15b17~-------------------------------|
D|----------------------------------------------0---------------------------|
A|----------------------------------------------0---------------------------|
D|----------------------------------------------0---------------------------|

Rhythm
e|--------------------------------------------------------------------------|
B|--------------------------------------------------------------------------|
G|--------------------------------------------------------------------------|
D|-8-8-10-7-8-8-10-7-9-9-9-9-9-9-9-9-8-8-10-7-8-8-10-7-10-10-10-10-10-10-10-|
A|-8-8------8-8------9-9-9-9-9-9-9-9-8-8------8-8------10-10-10-10-10-10-10-|
D|-8-8------8-8------9-9-9-9-9-9-9-9-8-8------8-8------10-10-10-10-10-10-10-|


e|-------------|
B|-------------|
G|-------------|
D|-10-0--------|
A|-10-0--------|
D|-10-0--------|


b - Bend
r - Release bend
~ - Vibrato
h - Hammer on
p - Pull off
* - Palm mute
/ - Slide to note





Comments


Popular Burn Halo tabs & chords
Fallin' Faster Chords
Save Me Chords
Too Late To Tell You Now Chords
Anejo Tabs
Dirty Little Girl 2 Tabs
Dirty Little Girl Intro Tabs
Here With Me 2 Tabs
Our House 2 Tabs
Saloon Song Tabs
Save Me 2 Tabs


Song lyrics



↑ Back to top | Tablatures and chords are parodies/interpretations of the original songs. You may use it for private study, scholarship, research or language learning purposes only
© 2014 AZChords.com Contact us | Privacy policy | DMCA | Add/correct tabs | Request tabs | Top 50 tabs