>
 >
Anejo

Anejo Guitar Tabs

Burn Halo - Anejo chords, tabs, tablatures, lyrics

Guitar lessons | Add/correct | Request | Top 50 tabs Artists:  A B C D E F G H I J K L M N O P Q R S T U V W X Y Z 0-9

Anejo Guitar Tabs – Burn Halo

CD, Sheet music, Poster

Do you like Anejo? Share with your friends now
Tabs
			     Anejo  - Burn halo 

Tuning: dropped D

e|-----------------------------------|
B|-----------------------------------|
G|-----------------------------------|
D|-5/7-7-7-7-7--7-7-7---------------|
A|-3/5-5-5-5-5--5-5-5---------------|
E|-----------------------------------|

e|-----------------------------------|
B|-----------------------------------|
G|-----------------------------------|
D|-7/10-10-10--10-10-10-10-10--------|
A|-5/-8--8-8--8--8--8--8--8---------|
E|-----------------------------------|

e|-----------------------------------|
B|-----------------------------------|
G|-----------------------------------|
D|-5-5-5-5-55-5-5-------------------|
A|-3-3-3-3-33-3-3-------------------|
E|-----------------------------------|

e|-----------------------------------|
B|-----------------------------------|
G|-----------------------------------|
D|-----------------------------------|
A|-8-8-8-8-8-8-8-8-------------------|
D|-8-8-8-8-8-8-8-8-------------------|

e|-----------------------------------|
B|-13b15-13~-15-10-10-13-10----------|
G|-------------------------~---------|
D|-----------------------------------|
A|-----------------------------------|
D|-----------------------------------|


e|-------------------------------------|
B|-13----------13----------------------|
G|----12b14-12----9-9b------------10---|
D|--------------------7-10-10--12----12|
A|-------------------------------------|
D|-------------------------------------|

e|-----------------------------------|
B|-----------------------------------|
G|-----------------------------------|
D|-7---------------------------------|
A|-5-5-5-55-5-5-5-5-5-5-5-5-5-------|
D|-----------------------------------|

e|-----------------------------------|
B|-----------------------------------|
G|-----------------------------------|
D|-10--------------------------------|
A|-8-88-8-8-8-8-8-8-8-8-8-8-8-------|
D|-----------------------------------|

e|-----------------------------------|
B|-----------------------------------|
G|-----------------------------------|
D|-5---------------------------------|
A|-3-3-3-3-33-3-3-3-3-3-3-3-3-3-----|
D|-----------------------------------|


e|-----------------------------------|
B|-----------------------------------|
G|-----------------------------------|
D|-3---------------------------------|
A|-1-1-1-1-1-1-3---------------------|
D|-------------3-3-3-3-3-3-----------|

e|-----------------------------------|
B|-----------------------------------|
G|-----------------------------------|
D|-7---------------------------------|
A|-5-5-5-55-5-5-5-5-5-5-5-5-5-------|
D|-----------------------------------|


e|-----------------------------------|
B|-----------------------------------|
G|-----------------------------------|
D|-10--------------------------------|
A|-8-88-8-8-8-8-8-8-8-8-8-8-8-------|
D|-----------------------------------|

e|-----------------------------------|
B|-----------------------------------|
G|-----------------------------------|
D|-5---------------------------------|
A|-3-3-3-3-33-3-3-3-3-3-3-3-3-3-----|
D|-----------------------------------|


e|-----------------------------------|
B|-----------------------------------|
G|-----------------------------------|
D|-3---------------------------------|
A|-1-1-1-1-1-1-3---------------------|
D|-------------3-3-3-3-3-3-----------|


e|-6-----6-----6-----6---------------|
B|---8-----8-----8-----8-------------|
G|-----7-----7-----7-----7-----------|
D|-----------------------------------|
A|-----------------------------------|
D|-----------------------------------|


e|-5------5------0-----0-------------|
B|---7------7------2-----2-----------|
G|-----7------7------2----2----------|
D|-----------------------------------|
A|-----------------------------------|
D|-----------------------------------|

e|-6-----6-----6-----6---------------|
B|---8-----8-----8-----8-------------|
G|-----7-----7-----7-----7-----------|
D|-----------------------------------|
A|-----------------------------------|
D|-----------------------------------|


e|-6-----6------6--------------------|
B|---8-----8----8--------------------|
G|-----8-----8-----------------------|
D|-----------------------------------|
A|-----------------------------------|
D|-----------------------------------|

e|-----------------------------------|
B|-----------------------------------|
G|-----------------------------------|
D|-7-7--7---10--10--10--------------|
A|-5-5--5---8--8--8---------------|
D|-----------------------------------|


e|-----------------------------------|
B|-----------------------------------|
G|-----------------------------------|
D|-5-5--5--5--5--5--5--5------------|
A|-3-3--3-3--3-3--3-3------------|
D|-----------------------------------|

e|-----------------------------------|
B|-----------------------------------|
G|-----------------------------------|
D|-7-7--7---10--10--10--------------|
A|-5-5--5---8--8--8---------------|
D|-----------------------------------|


e|-----------------------------------|
B|-----------------------------------|
G|-----------------------------------|
D|-5-5--5--5--5--5--5--5------------|
A|-3-3--3-3--3-3--3-3------------|
D|-----------------------------------|


e|-----------------------------------|
B|-----------------------------------|
G|-----------------------------------|
D|-----------------3-3-3-3-3-3-3-3---|
A|-55-5-5-5-5-5-5-1-1-1-1-1-1-1-1---|
D|-55-5-5-5-5-5-5-------------------|

e|-----------------------------------|
B|-----------------------------------|
G|-----------------------------------|
D|-5-5--5--5--5--5--5--5------------|
A|-3-3--3-3--3-3--3-3------------|
D|-----------------------------------|

e|-----------------------------------|
B|-13b15-13~-13b15-10-11-------------|
G|-----------------------------------|
D|-----------------------------------|
A|-----------------------------------|
D|-----------------------------------|

e|-----------------------------------|
B|-13-13b15-13~-13b15-10-6-6-8-6-----|
G|-------------------------------7---|
D|-----------------------------------|
A|-----------------------------------|
D|-----------------------------------|

e|-----------------------------------|
B|-----------------------------------|
G|-----------------------------------|
D|-7---------------------------------|
A|-5-5-5-55-5-5-5-5-5-5-5-5-5-------|
D|-----------------------------------|

e|-----------------------------------|
B|-----------------------------------|
G|-----------------------------------|
D|-10--------------------------------|
A|-8-88-8-8-8-8-8-8-8-8-8-8-8-------|
D|-----------------------------------|

e|-----------------------------------|
B|-----------------------------------|
G|-----------------------------------|
D|-5---------------------------------|
A|-3-3-3-3-33-3-3-3-3-3-3-3-3-3-----|
D|-----------------------------------|


e|-----------------------------------|
B|-----------------------------------|
G|-----------------------------------|
D|-3---------------------------------|
A|-1-1-1-1-1-1-3---------------------|
D|-------------3-3-3-3-3-3-----------|

e|-----------------------------------|
B|-----------------------------------|
G|-----------------------------------|
D|-7---------------------------------|
A|-5-5-5-55-5-5-5-5-5-5-5-5-5-------|
D|-----------------------------------|
e|-----------------------------------|
B|-----------------------------------|
G|-----------------------------------|
D|-10--------------------------------|
A|-8-88-8-8-8-8-8-8-8-8-8-8-8-------|
D|-----------------------------------|

e|-----------------------------------|
B|-----------------------------------|
G|-----------------------------------|
D|-5---------------------------------|
A|-3-3-3-3-33-3-3-3-3-3-3-3-3-3-----|
D|-----------------------------------|


e|-----------------------------------|
B|-----------------------------------|
G|-----------------------------------|
D|-3---------------------------------|
A|-1-1-1-1-1-1-3---------------------|
D|-------------3-3-3-3-3-3-----------|


e|-6-----6-----6-----6---------------|
B|---8-----8-----8-----8-------------|
G|-----7-----7-----7-----7-----------|
D|-----------------------------------|
A|-----------------------------------|
D|-----------------------------------|


e|-5------5------0-----0-------------|
B|---7------7------2-----2-----------|
G|-----7------7------2----2----------|
D|-----------------------------------|
A|-----------------------------------|
D|-----------------------------------|

e|-6-----6-----6-----6---------------|
B|---8-----8-----8-----8-------------|
G|-----7-----7-----7-----7-----------|
D|-----------------------------------|
A|-----------------------------------|
D|-----------------------------------|


e|-6-----6------6--------------------|
B|---8-----8----8--------------------|
G|-----8-----8-----------------------|
D|-----------------------------------|
A|-----------------------------------|
D|-----------------------------------|

e|-----------------------------------|
B|-----------------------------------|
G|-----------------------------------|
D|-7-7--7---10--10--10--------------|
A|-5-5--5---8--8--8---------------|
D|-----------------------------------|




e|-----------------------------------|
B|-----------------------------------|
G|-----------------------------------|
D|-5-5--5--5--5--5--5--5------------|
A|-3-3--3-3--3-3--3-3------------|
D|-----------------------------------|

e|-----------------------------------|
B|-----------------------------------|
G|-----------------------------------|
D|-7-7--7---10--10--10--------------|
A|-5-5--5---8--8--8---------------|
D|-----------------------------------|


e|-----------------------------------|
B|-----------------------------------|
G|-----------------------------------|
D|-5-5--5--5--5--5--5--5------------|
A|-3-3--3-3--3-3--3-3------------|
D|-----------------------------------|


e|-----------------------------------|
B|-----------------------------------|
G|-----------------------------------|
D|-----------------3-3-3-3-----------|
A|-55-5-5-5-5-5-5-1-1-1-1-----------|
D|-55-5-5-5-5-5-5-------------------|

e|-----------------------------------|
B|-----------------------------------|
G|-----------------------------------|
D|-5-5--5--5--5--5--5--5------------|
A|-3-3--3-3--3-3--3-3------------|
D|-----------------------------------|


e|-----------------------------------|
B|-----------------------------------|
G|-----------------------------------|
D|-----------------------------------|
A|-11-1-1-5-5-5-5--11-1-1-0-0-0-0--|
D|-11-1-1-5-5-5-5--1-1-1-1-0-0-0-0--|

e|-----------------------------------|
B|-----------------------------------|
G|-----------------------------------|
D|-----------------------------------|
A|-11-1-1-5-5-5-5--11-1-1-0-0-0-0--|
D|-11-1-1-5-5-5-5--1-1-1-1-0-0-0-0--|

e|-----15-11-------15-11-------15-11-------15-11--------|
B|-8+b-------15-11-------15-11-------15-11-------15-11--|
G|------------------------------------------------------|
D|------------------------------------------------------|
A|------------------------------------------------------|
D|------------------------------------------------------|

e|--18----------18---------15-------15-15-15-15-17-17-18-18-18b20-|
B|-----15-18-15---15-18-15----15-15-------------------------------|
G|----------------------------------------------------------------|
D|----------------------------------------------------------------|
A|----------------------------------------------------------------|
D|----------------------------------------------------------------|

e|-17-15-------------------------|
B|--------19-19b22---------------|
G|-------------------------------|
D|-------------------------------|
A|-------------------------------|
D|-------------------------------|

e|-----15-11-------15-11-------15-11-------15-11--------|
B|-----------15-11-------15-11-------15-11-------15-11--|
G|------------------------------------------------------|
D|------------------------------------------------------|
A|------------------------------------------------------|
D|------------------------------------------------------|

e|--18----------18---------15---------------------------------------|
B|-----15-18-15---15-18-15----15-15--13-8-13-17-15-14-15-17b18-17---|
G|------------------------------------------------------------------|
D|------------------------------------------------------------------|
A|------------------------------------------------------------------|
D|------------------------------------------------------------------|

e|--------------------------------------------------|
B|-8-13-17-15-14-15-17b18-17-17-18-20-20b21---------|
G|--------------------------------------------------|
D|--------------------------------------------------|
A|--------------------------------------------------|
D|--------------------------------------------------|


e|-----------------------------------|
B|-----------------------------------|
G|-----------------------------------|
D|-7-7--7---10--10--10--------------|
A|-5-5--5---8--8--8---------------|
D|-----------------------------------|


e|-----------------------------------|
B|-----------------------------------|
G|-----------------------------------|
D|-5-5--5--5--5--5------------------|
A|-3-3--3-3--3-3------------------|
D|-----------------------------------|

e|-----------------------------------|
B|-----------------------------------|
G|-----------------------------------|
D|-7-7--7---10--10--10--------------|
A|-5-5--5---8--8--8---------------|
D|-----------------------------------|


e|-----------------------------------|
B|-----------------------------------|
G|-----------------------------------|
D|-5-5--5--5--5--5--5--5------------|
A|-3-3--3-3--3-3--3-3------------|
D|-----------------------------------|


e|-----------------------------------|
B|-----------------------------------|
G|-----------------------------------|
D|-7-7--7---10--10--10--------------|
A|-5-5--5---8--8--8---------------|
D|-----------------------------------|

e|-----------------------------------|
B|-----------------------------------|
G|-----------------------------------|
D|-5-5--5--5--5--5--5--5------------|
A|-3-3--3-3--3-3--3-3------------|
D|-----------------------------------|

e|-----------------------------------|
B|-----------------------------------|
G|-----------------------------------|
D|-7-7--7---10--10--10--------------|
A|-5-5--5---8--8--8---------------|
D|-----------------------------------|

e|-----------------------------------|
B|-----------------------------------|
G|-----------------------------------|
D|-5-5--5--5--5--5--5--5------------|
A|-3-3--3-3--3-3--3-3------------|
D|-----------------------------------|

e|------------------|
B|------------------|
G|------------------|
D|--------3-3-3-----|
A|-55-5--1-1-1-----|
D|-55-5------------|

e|-------------------------------------------------|
B|-------------------------------------------------|
G|-12-8-12-15-14-12-------12-8-12-15-14-12-11------|
D|------------------12-8---------------------------|
A|-------------------------------------------------|
D|-------------------------------------------------|

e|-------------------------------------------------|
B|-------------------------------------------------|
G|-12-8-12-15-14-12--------------------------------|
D|------------------12-8-10-8-10-15-15-------------|
A|-------------------------------------------------|
D|-------------------------------------------------|

e|-------------------------------------------------|
B|-------------------------------------------------|
G|-12-8-12-15-14----------12-8-12-15-14-12-11------|
D|---------------16-12-8---------------------------|
A|-------------------------------------------------|
D|-------------------------------------------------|

e|-----------------------------------------------------|
B|-----------------------------------------------------|
G|-12-8-12-15-14-12------------------------------------|
D|------------------12-8-10-8-10-15-15-13-12-----8b98--|
A|-------------------------------------------13--------|
D|-----------------------------------------------------|




| /  slide up
| \  slide down
| h  hammer-on
| p  pull-off
| ~  vibrato
| +  harmonic
| x  Mute note
| b  bend





Comments


Popular Burn Halo tabs & chords
Here With Me Chords
Saloon Song Chords
Too Late To Tell You Now Chords
Dirty Little Girl Tabs
Gasoline Tabs
Here With Me Tabs
Our House Tabs
Saloon Song Tabs
Save Me Tabs
Save Me 2 Tabs


Song lyrics



↑ Back to top | Tablatures and chords are parodies/interpretations of the original songs. You may use it for private study, scholarship, research or language learning purposes only
© 2014 AZChords.com Contact us | Privacy policy | DMCA | Add/correct tabs | Request tabs | Top 50 tabs