>
 >
Renai Rider

Renai Rider Guitar Tabs

Buono - Renai Rider chords, tabs, tablatures, lyrics

Guitar lessons | Add/correct | Request | Top 50 tabs Artists:  A B C D E F G H I J K L M N O P Q R S T U V W X Y Z 0-9

Renai Rider Guitar Tabs – Buono

CD, Sheet music, Poster

Do you like Renai Rider? Share with your friends now
Tabs
Key: C#

**Intro**
-66-99-1111-6-9-11--|--/11-11-111111-1111-9-8---4/6-6-6666-88-888-----|
-66-99-1111-6-9-11--|-------------------------------------------------|
--------------------|-------------------------------------------------|
--------------------|-------------------------------------------------|
--------------------|-------------------------------------------------|
--------------------|---------------------------------------------rpt-|
                Riff>

-9-9--99-99-1111-1111--|
-----------------------|
-----------------------|
-----------------------|
-----------------------|
-----------------------|


**Verse Singing Melody**
----------------------------------|------------------------|-----------------|
-6-9------------------------------|------9-11--11---13-13--|------9-11--11---|
-----8-10--5-8----5------5-5------|-8-10-------------------|-8-10------------|
----------------8-----6-------8-6-|------------------------|-----------------|
----------------------------------|------------------------|-----------------|
----------------------------------|------------------------|-----------------|

-----------||----------------------------------------------------------------|
-13-13-9-9-||----------------------------------------------------------------|
-----------||----------------------------------------------------------------|
-----------||----------------------------------------------------------------|
-----------||----------------------------------------------------------------|
-----------||----------------------------------------------------------------|

**Verse**
C#
Sekai ga owareba sore made jan
	    G#
Suki da yo! OMAE
Suki! SUKI! Suki nan da!

C#
JITABATA atashi wa ikiteruze
	   G#
kizuke yo! OMAE
suki! SUKI! Suki na no ni!

**Bridge**
C# Bbm	   Fm  G#      Fm
Iitai kuse ni ienain da yo
Fm Bbm       C#   C#sus2 C# C#sus2
tsutaetai na My ? HAATO
        Bbm       Fm     G#
Oh Yes! HIIROO wa hitori dake

**Chorus**
G#		   Fm
Koi shiteru kagiri dekoboko darake
C#		        Bbm
hashiri tsuzukero hora! HENACHOKO RAIDAA
G#		    Fm          Fm7
yuuyake ippon michi motto motto tsuyoku
C#		  Bbm        G#
seishun no kouya wo hashire

**Riff**

**Verse**
C#
Ashita wa ashita no kaze yo fuke
	   G#
BIBIRU na! Atashi
arashi wo yobu ONNA

C#
HAPPIIENDO de doro darake
	  G#
yatta ne! Atashi
donzoko tachiagaru

**Bridge**
C# Bbm	   Fm  G#      Fm
Nakitain da yo ureshiin da yo
Fm Bbm   C#   C#sus2 C# C#sus2
toriaezu DABURU PIISU!!
        Bbm       Fm       G#
Go! Go! Doko made mo tsuppashire


**Chorus**
G#		   Fm
Koi shiteru kagiri FURAFURA darake
C#		     Bbm
aishi tsuzukero ike! HENACHOKO RAIDAA
G#		  Fm          Fm7
KOKETE kizutsuite kitto kitto itsuka
C#		  Bbm        G#
saikou no kiseki wo tsukame

**Break**
---------------------|---------|------------------------------------------|
---------------------|---------|------------------------------------------|
---------------------|---------|------------------------------------------|
---------------------|---------|------------------------------------------|
------3-1------------|---------|------3-1---------------------------------|
-1--1-----4-3--1-0-1-|-13tr-\1-|-1--1-----4-3--1-0-1----------------------|
                  x4       				   x4	

F#5 F#5 F#5 G5 G#5

Fm    C#      Bbm      G#	Fm
Michi ni mayotte sore demo ii yo
Fm     C#     Bbm
kotoba tarazu My ? HAATO
        C#	        G#
Oh Yes! HIIROO wa hitori dake

**Chorus**
G#		   Fm
Koi shiteru kagiri dekoboko darake
C#		        Bbm
hashiri tsuzukero hora! HENACHOKO RAIDAA
G#		    Fm          Fm7
yuuyake ippon michi motto motto tsuyoku
C#		  Bbm        G#
seishun no kouya wo hashire

Riff & Intro





Comments


Popular Buono tabs & chords
Garakuta No Yume Chords
Hatsukoi Cider Chords
Kia Ora Gracias Arigato Chords
Koucha No Oishii Mise Chords
Rock No Kamisama Chords
Zassou No Uta Chords
Independent Girl Tabs
Kimi Ga Ireba Tabs
Miracle Happy Love Song Tabs
Natsu Dakara Tabs


Song lyrics



↑ Back to top | Tablatures and chords are parodies/interpretations of the original songs. You may use it for private study, scholarship, research or language learning purposes only
© 2014 AZChords.com Contact us | Privacy policy | DMCA | Add/correct tabs | Request tabs | Top 50 tabs