>
 >
Nakimushi Shounen

Nakimushi Shounen Guitar Tabs

Buono - Nakimushi Shounen chords, tabs, tablatures, lyrics

Guitar lessons | Add/correct | Request | Top 50 tabs Artists:  A B C D E F G H I J K L M N O P Q R S T U V W X Y Z 0-9

Nakimushi Shounen Guitar Tabs – Buono

CD, Sheet music, Poster

Do you like Nakimushi Shounen? Share with your friends now
Tabs
Buono - Nakimushi Shounen (Crybaby Boy)
Key: F#

-9---------------11--------------4---------------13---------------------------|
-9---------------11--------------4---------------13---------------------------|
-7-7-7-7-7-7-7-7-9-9-9-9-9-9-9-9-2-2-2-2-2-2-2-2-11-11-11-11-11-11-11-11------|
Utsumuka         naide           kao wo   agete
-9---------------8---------------13----------------------11----------11------|
-9---------------8---------------13----------------------11----------11------|
-7-7-7-7-7-7-7-7-6-6-6-6-6-6-6-6-11-11-11-11-11-11-11-11-9-9-9-9-9-9-9-------|
 kimi no       tame ni           uta                     u yo

B         C#      F#        D#m
nakimushi shounen doshaburi All right
     B          C#       F#
kono basho wo tobikoete ikou

---------------|-----------------|----|---------------------------------------|
---------------|-----------------|----|---------------------------------------|
-0-11--11-11---|-----------------|----|---------------------------------------|
-0-11--11-11---|-0-13---13-13----|----|---------------------------------------|
-0-9---9--9----|-0-13---13-13----|----|---------------------------------------|
---------------|-0-11---11-11----|-x4-|---------------------------------------|

C#5
Shashin no naka ni iru kimi wa

-11-11-11---10-10-10---------------------------------------------------------|
-11-11-11---11-11-11---------------------------------------------------------|
-9--9--9----8--8--8----------------------------------------------------------|

D#5 (1 strum)        	C#5
dore mo fuzakete bakari de okashii

-----------9-----------------------------------------------------------------|
-----------9-----------------------------------------------------------------|
-----------9-----------------------------------------------------------------|
-4-2-3-4-x-------------------------------------------------------------------|

C#5
kanashii koto mo atta hazu na no ni

-11-11-11---10-10-10---------------------------------------------------------|
-11-11-11---11-11-11---------------------------------------------------------|
-9--9--9----8--8--8----------------------------------------------------------|

D#5 (1 strum) F#5          D#5     C#5			D#5 D#5
BURUU na kimi nante ichido mo mita koto nakatta

    C#5 C#5   D#5	D#5
Yogoreta BASU no
C#5
mado kara mieru

-----4--------6---------------------------------------------------------------|
---4---4----6---6-------------------------------------------------------------|
-4--------6-------------------------------------------------------------------|
B          C#        D#m
keshiki ga tooku chiisaku natte yuku

B         C#  F#     D#m
Furimukanaide mae wo muite
B       Bbm     F# D#m
doko e datte ikeru sa
B         C#      F#         D#m
horonigai seishun hachamecha All night
    B         C#          F#
kanashimi wo ketobashite ikou

---------------|-----------------|----|---------------------------------------|
---------------|-----------------|----|---------------------------------------|
-0-11--11-11---|-----------------|----|---------------------------------------|
-0-11--11-11---|-0-13---13-13----|----|---------------------------------------|
-0-9---9--9----|-0-13---13-13----|----|---------------------------------------|
---------------|-0-11---11-11----|-x4-|---------------------------------------|

C#5
Michibata ni saku zassou mitai ni

-11-11-11---10-10-10---------------------------------------------------------|
-11-11-11---11-11-11---------------------------------------------------------|
-9--9--9----8--8--8----------------------------------------------------------|

D#5        C#5    B5      C#5
motto tsuyoku naritai to omou

-----------9------------------------------------------------------------------|
-----------9------------------------------------------------------------------|
-----------9------------------------------------------------------------------|
-4-2-3-4-x--------------------------------------------------------------------|

C#5
ichinen mae no jibun ga mou

-11-11-11---10-10-10---------------------------------------------------------|
-11-11-11---11-11-11---------------------------------------------------------|
-9--9--9----8--8--8----------------------------------------------------------|

D#5        C#5         B5         C#5            D#5 D#5
mukashi no koto ni omoete sukoshi sabishikatta
  C#5C#5    D#5D#5 C#5
Onsoku de hibi sugite yuku nara

-----4--------6--------------------------------------------------------------|
---4---4----6---6------------------------------------------------------------|
-4--------6------------------------------------------------------------------|
B    C#           D#m
sore yori hayai SUPIIDO de ikite yare

B         C#  F#     D#m
Utsumukanaide kao wo agete
B       Bbm     F# D#m
kimi no tame ni utau yo
B         C#  F#     D#m
nakimushi shounen doshaburi All right
    B         C#          F#
kono basho wo tobikoete ikou

SOLO
--------------------------------|----/14-------------------------------------|
----11-13-11--/16---14--12------|--------14----------------------------------|
-13------------------------12---|-------------11-12-1313-11-1313-11-13-13----|
--------------------------------|-------------11-12-1313-11-1313-11-13-13----|
--------------------------------|--------------------------------------------|
--------------------------------|--------------------------------------------|

----14-14----14-14---------------|-------------------------------------------|
-14-------14---------------------|-------------------------------------------|
--------------------/13--/15\3v--|-------------------------------------------|
---------------------------------|-------------------------------------------|
---------------------------------|-------------------------------------------|
---------------------------------|-------------------------------------------|

D#5 (1 strum) F#5          D#5    C#5
Okujou kara mita ano hi no machi mo

-----4--------6--------------------------------------------------------------|
---4---4----6---6------------------------------------------------------------|
-4--------6------------------------------------------------------------------|
B    C#           D#m
omoide mo ima wa koko ni oite yuke

B         C#  F#     D#m
Furimukanaide mae wo muite
B       Bbm     F# D#m
doko e datte ikeru sa
B         C#  F#     D#m
horonigai seishun hachamecha All night
    B         C#          F#
kanashimi wo ketobashite ikou

B         C#  F#     D#m
Utsumukanaide kao wo agete
B       Bbm     F# D#m
kimi no tame ni utau yo
B         C#  F#     D#m
nakimushi shounen doshaburi All right
    B         C#          F#
kono basho wo tobikoete ikou

-11-11-11-11-11-1010-8v------------------------------------------------------|
-11-11-11-11-11-1010-8v------------------------------------------------------|

    B         C#          F#
kanashimi wo ketobashite ikou ikou

F#5 F#5 D#5 D#5 rpt

D#5





Comments


Popular Buono tabs & chords
Our Songs Chords
Rock No Kamisama Chords
Zassou No Uta Chords
Cafe Buono Tabs
Co No Mi Chi Tabs
Early Bird Tabs
Honto No Jibun Tabs
Kimi Ga Ireba Tabs
Shoushitsuten Tabs
Warp Tabs


Song lyrics



↑ Back to top | Tablatures and chords are parodies/interpretations of the original songs. You may use it for private study, scholarship, research or language learning purposes only
© 2014 AZChords.com Contact us | Privacy policy | DMCA | Add/correct tabs | Request tabs | Top 50 tabs