» » »

Bullet For My Valentine, Waking The Demon Tabs (ver.1)

Artists:  A B C D E F G H I J K L M N O P Q R S T U V W X Y Z # 

Waking The Demon Tabs (ver.1)

Bullet For My Valentine Tabs
Rating:
0/5 (0 votes)
Waking The Demon lessons Tabs too difficult? Try these video lessons and learn fast
                Waking The Demon by Bullet For My Valentine
Off The Scream, Aim, Fire album.
Enjoy.

NOTE!: the tuning on the guitar scale is not right!!
Actual tuning: D,A,F,C,G,C

s-slide
p-pull off
h-hammer on
*-pinch harmonic

Intro (main riff)
played 4 or 5x (cant remember)
D||--------------------------------------------------------------------|
A||--------------------------------------------------------------------|
F||--------------------------------------------------------------------|
C||--------------------------------------------------------------------|
G||---------5p4-----7p4------------------------5p4-----7p4------4--7---|
D||-4-4-4-4-----4-4-----4-4--5p4-7p4---4-4-4-4-----4-4-----4-4--4--7---|

D||-----------------------------------------------------------------------|
A||-----------------------------------------------------------------------|
F||-----------------------------------------------------------------------|
C||-----------------------------------------------------7p4-5p4-----------|
G||---------5p4-----7p4------------------------5p4-------------7p4-5p4----|
D||-4-4-4-4-----4-4-----4-4--5p4-7p4---4-4-4-4-----4-4--------------------|

D||----------------------------------------------------------------------|
A||----------------------------------------------------------------------|
F||----------------------------------------------------------------------|
C||---0-----------7p4 5p4----------9p6-7p6-------------------------------|
G||---0------------------7p4-5p4----------9p6-7p6------------------------|
D||---0------------------------------------------------------------------|

Main riff once again (played 2x)
D||--------------------------------------------------------------------|
A||--------------------------------------------------------------------|
F||--------------------------------------------------------------------|
C||--------------------------------------------------------------------|
G||---------5p4-----7p4------------------------5p4-----7p4------4--7---|
D||-4-4-4-4-----4-4-----4-4--5p4-7p4---4-4-4-4-----4-4-----4-4--4--7---|

D||-----------------------------------------------------------------------|
A||-----------------------------------------------------------------------|
F||-----------------------------------------------------------------------|
C||-----------------------------------------------------7p4-5p4-----------|
G||---------5p4-----7p4------------------------5p4-------------7p4-5p4----|
D||-4-4-4-4-----4-4-----4-4--5p4-7p4---4-4-4-4-----4-4--------------------|

Chorus. played 2x

Gtr 1.
D||-----------------------------------------------------------------------|
A||-----------------------------------------------------------------------|
F||-----------------------------------------------------------------------|
C||----------------------------------------s7-6---------------------------|
G||----------------------4-4-4-4------------------------------------------|
D||--7-5-4-4---4-5-4-4---4-4-4-4---7-5-4-4--------------------------------|

Gtr. 2
D||-----------------------------------------------------------------------|
A||-----------------------------------------------------------------------|
F||----------------------------------------s6-4---------------------------|
C||-----------------------------------------------------------------------|
G||----------------------4-4-4-4------------------------------------------|
D||--7-5-4-4---4-5-4-4---4-4-4-4---7-5-4-4--------------------------------|

Outer riff. (probably not the correct number of picks but you get the point)

D||-----------------------------------------------------------------------|
A||-----------------------------------------------------------------------|
F||---------------------------------------------6-6-6-6-6-4-4-4-4-4-------|
C||-4-4-4-4-4-4-4-4--6-6-6-6-6-------7-7-7-7-7-7--------------------7-7-7-|
G||---------------------------4-4-4-4-------------------------------------|
D||-----------------------------------------------------------------------|

D||-----------------------------------------------------------------------|
A||-----------------------------------------------------------------------|
F||-----------------------------------------------------------------------|
C||-4-4-4-4-4-4-4-4--6-6-6-6-6-------7-7-7-7-7-7--------------------------|
G||---------------------------4-4-4-4-------------------------------------|
D||------------------------------------------------7*---------------------|

Main riff once again (played 2x)
D||-----------------------------------------------------------------------|
A||-----------------------------------------------------------------------|
F||-----------------------------------------------------------------------|
C||-----------------------------------------------------------------------|
G||---------5p4-----7p4------------------------5p4-----7p4------4--7------|
||4-4-4-4-----4-4-----4-4--5p4-7p4---4-4-4-4-----4-4-----4-4--4--7--------|

D||-----------------------------------------------------------------------|
A||-----------------------------------------------------------------------|
F||-----------------------------------------------------------------------|
C||-----------------------------------------------------7p4-5p4-----------|
G||---------5p4-----7p4------------------------5p4-------------7p4-5p4----|
D||-4-4-4-4-----4-4-----4-4--5p4-7p4---4-4-4-4-----4-4--------------------|

Gtr 1.
D||-----------------------------------------------------------------------|
A||-----------------------------------------------------------------------|
F||-----------------------------------------------------------------------|
C||----------------------------------------s7-6---------------------------|
G||----------------------4-4-4-4------------------------------------------|
D||--7-5-4-4---4-5-4-4---4-4-4-4---7-5-4-4--------------------------------|

Gtr. 2
D||-----------------------------------------------------------------------|
A||-----------------------------------------------------------------------|
F||----------------------------------------s6-4---------------------------|
C||-----------------------------------------------------------------------|
G||----------------------4-4-4-4------------------------------------------|
D||--7-5-4-4---4-5-4-4---4-4-4-4---7-5-4-4--------------------------------|

Outer riff.

D||-----------------------------------------------------------------------|
A||-----------------------------------------------------------------------|
F||---------------------------------------------6-6-6-6-6-4-4-4-4-4-------|
C||-4-4-4-4-4-4-4-4--6-6-6-6-6-------7-7-7-7-7-7--------------------7-7-7-|
G||---------------------------4-4-4-4-------------------------------------|
D||-----------------------------------------------------------------------|

D||-----------------------------------------------------------------------|
A||-----------------------------------------------------------------------|
F||-----------------------------------------------------------------------|
C||-4-4-4-4-4-4-4-4--6-6-6-6-6-------7-7-7-7-7-7-7-7-7-7--////////////----|
G||---------------------------4-4-4-4---------------------////////////----|
D||-------------------------------------------------------////////////----|
                                                          (pick scr*pping)
Breakdown part. 4x
Gtr. 1
D||-----------------------------------------------------------------------|
A||---s10-9---9------s10-9---9-------S10-9---10---12---10---9---10--------|
F||---------9---9~~--------9---11~~--------9----9----9----9---9----9~~----|
C||-----------------------------------------------------------------------|
G||-----------------------------------------------------------------------|
D||-----------------------------------------------------------------------|

D||-----------------------------------------------------------------------|
A||---s10-9---9------s10-9---9-------S10-9---10---12---10---9---10--------|
F||---------9---9~~--------9---11~~--------9----9----9----9---9----9*~~---|
C||-----------------------------------------------------------------------|
G||-----------------------------------------------------------------------|
D||-----------------------------------------------------------------------|

Gtr 2.
D||-----------------------------------------------------------------------|
A||-----------------------------------------------------------------------|
F||-----------------------------------------------------------------------|
C||--0---0-0---0--2---2-2---2--4---4-4---4-4---4-4--4---------------------|
G||--0---0-0---0--2---2-2---2--4---4-4---4-4---4-4--4---------------------|
D||--0---0-0---0--2---2-2---2--4---4-4---4-4---4-4--4---------------------|

                                              countless times here.
D||----------------------------------------|-----------------------------|
A||----------------------------------------|-----------------------------|
F||----------------------------------------|-----------------------------|
C||----------------------------------------|-----------------------------|
G||--4---4-4-4-4-4---4-4-4-4-4--4-4-4-4-4--|--4-4-4-4-4-4-4-4-4-4-4-4-4--|
D||--4---4-4-4-4-4---4-4-4-4-4--4-4-4-4-4--|--4-4-4-4-4-4-4-4-4-4-4-4-4--|

Solo. (dont know)

Guitar Duel. (dont know)

Breakdown again.

Breakdown part. 4x
Gtr. 1
D||-----------------------------------------------------------------------|
A||---s10-9---9------s10-9---9-------S10-9---10---12---10---9---10--------|
F||---------9---9~~--------9---11~~--------9----9----9----9---9----9~~----|
C||-----------------------------------------------------------------------|
G||-----------------------------------------------------------------------|
D||-----------------------------------------------------------------------|

D||-----------------------------------------------------------------------|
A||---s10-9---9------s10-9---9-------S10-9---10---12---10---9---10--------|
F||---------9---9~~--------9---11~~--------9----9----9----9---9----9*~~---|
C||-----------------------------------------------------------------------|
G||-----------------------------------------------------------------------|
D||-----------------------------------------------------------------------|

Gtr 2.
D||-----------------------------------------------------------------------|
A||-----------------------------------------------------------------------|
F||-----------------------------------------------------------------------|
C||--0---0-0---0--2---2-2---2--4---4-4---4-4---4-4--4---------------------|
G||--0---0-0---0--2---2-2---2--4---4-4---4-4---4-4--4---------------------|
D||--0---0-0---0--2---2-2---2--4---4-4---4-4---4-4--4---------------------|

Last Riff (main riff basically)
D||--------------------------------------------------------------------|
A||--------------------------------------------------------------------|
F||--------------------------------------------------------------------|
C||--------------------------------------------------------------------|
G||---------5p4-----7p4------------------------5p4-----7p4------4--7---|
D||-4-4-4-4-----4-4-----4-4--5p4-7p4---4-4-4-4-----4-4-----4-4--4--7---|

D||----------------------------------------------------|
A||----------------------------------------------------|
F||----------------------------------------------------|
C||----------------------------------------------------|
G||---------5p4-----7p4------------------------5p4-----|
D||-4-4-4-4-----4-4-----4-4--5p4-7p4---4-4-4-4-----4-4-|

D||--------------------------------------------------------|
A||--------------------------------------------------------|
F||--------------------------------------------------------|
C||------7p4 5p4-9p6-7p6-----------------------------------|
G||---------------------7p4-5p4-9p6-7p6---------4--4-4-4-4-|
D||---------------------------------------------4--4-4-4-4-|


The End. 

hope you enjoyed them.
            

comments powered by Disqus
↑ Back to top | Bullet For My Valentine Tabs for Waking The Demon. Lyrics for acoustic guitar and electric guitar. Tablatures and chords are parodies/interpretations of the original songs. You may use it for private study, scholarship, research or language learning purposes only