>
 >
Say Goodnight 6

Say Goodnight 6 Guitar Tabs

Bullet For My Valentine - Say Goodnight 6 chords, tabs, tablatures, lyrics

Guitar lessons | Add/correct | Request | Top 50 tabs Artists:  A B C D E F G H I J K L M N O P Q R S T U V W X Y Z 0-9

Say Goodnight 6 Guitar Tabs – Bullet For My Valentine

CD, Sheet music, Poster

Do you like Say Goodnight 6? Share with your friends now
Bass TabsBass Tabs v2ChordsTabsTabs v2Tabs v3Tabs v4Tabs v5Tabs v6Tabs v7Tabs v8Tabs v9
----------------------------------------------------------------------------
----------------------------------------------------------------------------

I first herd this song on the album and thought it was amazing! Then i herd the acuostic
and had to learn it. I looked up the tab and it sounded wierd. So i remade it to make
sound how it should. If you are in the right tuning it should sound 100% correct. The 
is laid out from top to bottom in order. It tells you how many times to play each bar. So
it is... enjoy!

Tuning:

d
A
F
D
A
D

---------
Intro   |
---------

|--------------------------|--------------------------|
|--------------------------|--------------------------|
|--------------0-----------|--------0-----------0-----|
|--------2--------2-----2--|-----------2-----2-----2--| <--x4
|-----5-----5--------5-----|-----5--------3-----------|
|--0-----------------------|--0-----------------------|


---------
Verse 1 |
---------

|--------------------------|--------------------------|
|--------------5-----------|--------------------------|
|--------4--------4--------|--------0--------0--------|
|-----------3--------3-----|-----2--------2-----2-----| <--x3
|-----5-----------------0--|--1--------3-----------3--|
|--0-----------------------|--------------------------|

|--------------------------|------|
|--------------5-----------|--3~--|
|--------4--------4--------|--0~--|
|-----------3--------3-----|--2~--| <--x1
|-----5-----------------0--|--3~--|
|--0-----------------------|------|

|--------| |--------------------------|--------------------------|
|--------| |--------------5-----------|--------------------------|
|--------| |--------4--------4--------|--------0--------0--------|
|--------| |-----------3--------3-----|-----2--------2-----2-----| <--x4
|--------| |-----5-----------------0--|--1--------3-----------3--|
|--3--2--| |--0-----------------------|--------------------------|


---------
Chorus  |
---------

|--------------0-----------|--------0-----------------|
|--------3--------3--3-----|-----------3--------------|
|-----------0--------------|-----0--------------0-----|
|-----0--------------------|-----------------2-----2--| <--x1
|--1--------------------1--|--1-----------3-----------|
|--------------------------|--------------------------|

|--------------0-----------|--------0-----------------|
|--------3--------3--3-----|-----------3--------------|
|-----------0--------------|-----0--------------0-----|
|-----0--------------------|-----------------2-----2--| <--x1
|--------------------------|--------------3-----------|
|--0--------------------0--|--0-----------------------|

|--------------0-----------|--------0-----------------|
|--------3--------3--3-----|-----------3--------------|
|-----------0--------------|-----0--------------0-----|
|-----0--------------------|-----------------2-----2--| <--x1
|--1--------------------1--|--1-----------3-----------|
|--------------------------|--------------------------|

|--0~--|
|--5~--|
|--4~--|
|--0~--| <--x1
|--5~--|
|--0~--|


---------
Verse 2 |
---------

|--------| |--------------------------|--------------------------|
|--------| |--------------5-----------|--------------------------|
|--------| |--------4--------4--------|--------0--------0--------|
|--------| |-----------3--------3-----|-----2--------2-----2-----| <--x3
|--------| |-----5-----------------0--|--1--------3-----------3--|
|--3--2--| |--0-----------------------|--------------------------|

|--------------------------|------|
|--------------5-----------|--3~--|
|--------4--------4--------|--0~--|
|-----------3--------3-----|--2~--| <--x1
|-----5-----------------0--|--3~--|
|--0-----------------------|------|

|--------| |--------------------------|--------------------------|
|--------| |--------------5-----------|--------------------------|
|--------| |--------4--------4--------|--------0--------0--------|
|--------| |-----------3--------3-----|-----2--------2-----2-----| <--x4
|--------| |-----5-----------------0--|--1--------3-----------3--|
|--3--2--| |--0-----------------------|--------------------------|


---------
Chorus  |
---------

|--------------0-----------|--------0--------------------|
|--------3--------3--3-----|-----------3-----------------|
|-----------0--------------|-----0--------------0--------|
|-----0--------------------|-----------------2-----2-----| <--x1
|--1--------------------1--|--1-----------3-----------3--|
|--------------------------|-----------------------------|

|--------------0-----------|--------0--------------------|
|--------3--------3--3-----|-----------3-----------------|
|-----------0--------------|-----0--------------0--------|
|-----0--------------------|-----------------2-----2-----| <--x1
|--------------------------|--------------3-----------3--|
|--0--------------------0--|--0--------------------------|

|--------------0-----------|--------0--------------------|
|--------3--------3--3-----|-----------3-----------------|
|-----------0--------------|-----0--------------0--------|
|-----0--------------------|-----------------2-----2-----| <--x1
|--1--------------------1--|--1-----------3-----------3--|
|--------------------------|-----------------------------|


---------
Verse 3 |
---------

|--------------------------|-----------------------------|
|--------------------------|-----------------------------|
|--------------------------|-----------------------------|
|--0--0--0--0--0--0--0--0--|--0--3--3--3--3--3--5--5--5--| <--x1
|--0--0--0--0--0--0--0--0--|--0--1--1--3--3--3--3--3--3--|
|--0--0--0--0--0--0--0--0--|--0--------3--3--3-----------|

|--------------------------|-----------------------------------|
|--------------------------|-----------------------------------|
|--------------------------|-----------------------------------|
|--0--0--0--0--0--0--0--0--|--0--1~----1--1--3--3--3--5--5--5--| <--x8
|--0--0--0--0--0--0--0--0--|--0--3~----3--3--3--3--3--3--3--3--|
|--0--0--0--0--0--0--0--0--|--0--------------3--3--3-----------|

|--0~---------------------------|
|--0~---------------------------|
|--0~----------0--------0-------|
|--0~-------2--------2-----2----|  <--x4
|--0~----1--------3----------3--|
|--0~---------------------------|

|--------------------------|-----------------------------|
|--------------------------|-----------------------------|
|--------------------------|-----------------------------|
|--0--0--0--0--0--0--0--0--|--0--3--3--3--3--3--5--5--5--| <--x1
|--0--0--0--0--0--0--0--0--|--0--1--1--3--3--3--3--3--3--|
|--0--0--0--0--0--0--0--0--|--0--------3--3--3-----------|

|--------------------------|-----------------------------------|
|--------------------------|-----------------------------------|
|--------------------------|-----------------------------------|
|--0--0--0--0--0--0--0--0--|--0--1~----1--1--3--3--3--5--5--5--| <--x4
|--0--0--0--0--0--0--0--0--|--0--3~----3--3--3--3--3--3--3--3--|
|--0--0--0--0--0--0--0--0--|--0--------------3--3--3-----------|

|--0~--|
|--0~--|
|--0~--|
|--0~--| <--x1
|--0~--|
|--0~--|


THE END!





Comments


Popular Bullet For My Valentine tabs & chords
All These Things I Hate That Revolves Around Me Bass Tabs
No Easy Way Out Chords
Tears Dont Fall 1 Chords
All These Things I Hate (Revolve Around Me) 1 Tabs
Hearts Burst Into Fire Tabs
Hearts Burst Into Fire 5 Tabs
Last To Know Tabs
Say Goodnight Acousitc Tabs
The End 4 Tabs
The Poison 3 Tabs


Song lyrics



↑ Back to top | Tablatures and chords are parodies/interpretations of the original songs. You may use it for private study, scholarship, research or language learning purposes only
© 2014 AZChords.com Contact us | Privacy policy | DMCA | Add/correct tabs | Request tabs | Top 50 tabs