» » »

All These Things I Hate Bass tabs (ver.1)

Artists:  A B C D E F G H I J K L M N O P Q R S T U V W X Y Z # 

All These Things I Hate Bass tabs (ver.1)

Bullet For My Valentine
Rating:
5/5 (2 votes)

Tabs too difficult? Try these video lessons and learn fast.
                The bass in this song doesnt come in until (0:47)

                             x 2
|-------------------------------------|
|-------------------------------------|
|-------------------------------------|
|--77777-----55555----33332223333555--|

|----------------------|
|----------------------|
|----------------------|
|--77--77--77--7~2-----|


                        x 4
|-------------------------------------|
|-------------------------------------|
|-------------------------------------|
|--77777-----55555----33333-23--------|

|-------------------------------------------------------------------------|
|-------------------------------------------------------------------------|
|-------------------------------------------------------------------------|
|---777777-999-555-333333-999-555-777777-999-555-333333-5-----------------|


                             x 4
|-------------------------------------|
|-------------------------------------|
|-------------------------------------|
|--77777-----55555----33332223333555--|


              x2                                  x2
|-----------------------------||----------------------------------|
|-----------------------------||----------------------------------|
|-----------------------------||----------------------------------|
|--77--77--77--77--35---------||--77--77--777777--35---------7~---|


                   x 3
|-----------------------------||----------------------------------|
|-----------------------------||----------------------------------|
|-----------------------------||----------------------------------|
|--77777--333--555------------||--77777--333--555--------3~-------|

|---------------------------------------|
|---------------------------------------|
|---------------------------------------|
|--333333333333-------------------------|

|----------------------------------------|
|----------------------------------------|
|----------------------------------------|
|---7777777---5555555---33332223333555---|


|-------------------------------------|
|-------------------------------------|
|-------------------------------------|
|--77777-----55555----33332223333555--|


|----------------------------------------|
|----------------------------------------|
|----------------------------------------|
|---7777777---5555555---33332223333555---|

|-------------------------------------|
|-------------------------------------|
|-------------------------------------|
|--77777-----55555----33332223333555--|


|-------------------------------------|
|-------------------------------------|
|-------------------------------------|
|--77-77-77-77--3-5-7~2---------------|
            
Tabs too difficult? Try these video lessons and learn fast.


comments powered by Disqus
↑ Back to top | Tablatures and chords are parodies/interpretations of the original songs. You may use it for private study, scholarship, research or language learning purposes only