» » »

Tomorrow Tabs (ver.1)

Artists:  A B C D E F G H I J K L M N O P Q R S T U V W X Y Z # 

Tomorrow Tabs (ver.1)

Built To Spill
Rating:
0/5 (0 votes)

Tabs too difficult? Try these video lessons and learn fast.
                

C
waiting
        Am
for our answers
     Em
this cancer's
          FM7
common as sand

     C
what happens
     Am
here stays here
    Em
cuz no one
                      FM7
anywhere else gives a damn

Dm  Em       Am
all said and done
F                    Am    G
who's gonna bother remembering
Dm  Em       Am
all dead and gone


    C    Am      Em               G  F       G  C   Dm                   F
wah gtr
e|---------------------------------------------------------------------------|
B|---------------------------------------------------------------------------|
G|---------------------------------------9^-9-9^9^--7----7-----9^-7-----10~--|
D|--10---------10p9-----9-10-12-12^p10----------------10---7---------7-------|
A|---------------------------------------------------------------------------|
E|---------------------------------------------------------------------------|

    G   Em
e|----------------------------|
B|----------------------------|
G|--9^-7----7~^~^~^-----------|
D|-------10-------------------|
A|----------------------------|
E|----------------------------|

    C   Am  Em
like anyone assuming
               G        F
they know what makes us tick
      G       C                Dm
I was just as wrong as I could be
             F
only knowing that
G           Em
explained a lot

    C        Am      Em
the more you have to live for
             G         F
the more you love your life
           G       C             Dm
the harder it will be for you to die
    F
and we all want (living and)
G     Em
dying easy


Gbm        Bm
feels like eternity
                  A        A/Ab  Gb
but it's just one lifetime
Gbm       Bm
how can a love that
               A        A/Ab  Gb
unforbidden be so strong
Gbm               Bm
there's something wrong with me
        D
I try to forget
Gbm     Bm     A        A/Ab  Gb
Aaaaah
        D
I try to forget
    Bm
but my memory
              E
won't fail me now

     C     Am      Em
it's wonderful and scary
        G      F
knowing what's alive
          G       C            Dm
a tree, a rock, a turtle, or a thought
                     F             
that's what makes me wanna
G     Em
never die

at least we have tomorrow
if we have tomorrow
tomorrow's just a day beyond today
if tomorrow
comes tomorrow


| /  slide up
| \  slide down
| h  hammer-on
| p  pull-off
| ~  vibrato
| +  harmonic
| x  Mute note
            
Tabs too difficult? Try these video lessons and learn fast.


comments powered by Disqus
↑ Back to top | Tablatures and chords are parodies/interpretations of the original songs. You may use it for private study, scholarship, research or language learning purposes only