» » »

Built To Spill, Temporarily Blind Tabs (ver.1)

Artists:  A B C D E F G H I J K L M N O P Q R S T U V W X Y Z # 

Temporarily Blind Tabs (ver.1)

Built To Spill Tabs
 Rating:
3.6/5 (7 votes)
Temporarily Blind lessons Tabs too difficult? Try these video lessons and learn fast
                
Tuning: Standard (Two guitars, One with slide)

| /  slide up
| \  slide down
| h  hammer-on
| p  pull-off
| ~  vibrato
| +  harmonic
| x  Mute note
---------------------------------------------------------------------------

(Intro)
e|-5---5---5---5---5---5---5---5----|
B|---7---7---7---7---7---7---7---7--|
G|----------------------------------|
D|----------------------------------|
A|----------------------------------|
E|----------------------------------|

(Main Riff/Verse One)
e|-5---5---5---5h7--5---5---5---5h7----------------------------------------|
B|---7---7---7--------7---7---7------5---5---5---5h7-----------------------|
G|-------------------------------------7---7---7----------------7\---------|
D|------------------------------------------------------7b9---------(5)/7--|
A|-------------------------------------------------------------------------|
E|-------------------------------------------------------------------------|

(Slide Guitar)
e|-(10)/14----------17\---10----------------------------------------------|
B|------------------------------------------------10/12-------------------|
G|------------------------------------------------------------------------|
D|------------------------------------------------------------------------|
A|------------------------------------------------------------------------|
E|------------------------------------------------------------------------|

(Bridge One)
e|-------------------------------------------------------------------------|
B|-------------------------------------------------------------------------|
G|-----------0-----------------2----------------0----------------2---------|
D|------4-------2h4---------4-----2h4--------4-----2h4--------4-----2h4----|
A|-2-2-----------------2-2--------------2-2--------------2-2---------------|
E|-------------------------------------------------------------------------|

(Bridge One Slide Guitar)
e|-------------------------------------------------------------------------|
B|----------7\3---------------7\3---------------7\3-------------7\3--------|
G|----------------2/4---------------2/4---------------2/4-------------2/4--|
D|-------------------------------------------------------------------------|
A|-------------------------------------------------------------------------|
E|-------------------------------------------------------------------------|

(Transition One)
e|-------------------------------------------------------------------------|
B|-------------------------------------------------------------------------|
G|-11-11-11-11-11-11--11-11-11-11-11-11--12-12-12-12-12-12--12-12-12-12-12-|
D|--x--x--x--x--x--x---x--x--x--x--x--x---x--x--x--x--x--x---x--x--x--x--x-|
A|--9--9--9--9--9--9---9--9--9--9--9--9--10-10-10-10-10-10--10-10-10-10-10-|
E|-------------------------------------------------------------------------|

NOTE: Played several times.

(Guitar Solo)
e|--14-14-14-14------14-14-14-14------14-14-14-14------14-14-14-14------|
B|--------------12---------------12---------------12---------------12---|
G|----------------------------------------------------------------------|
D|----------------------------------------------------------------------|
A|----------------------------------------------------------------------|
E|----------------------------------------------------------------------|

NOTE: Played several times.

(Second Guitar during solo)
e|-------------------------------------------------------------------------|
B|-------------------------------------------------------------------------|
G|-------------------------------------------------------------------------|
D|--------------4\2/4-------------4\2/4------------4\2/4-----------4\2/4---|
A|-------------------------------------------------------------------------|
E|-------------------------------------------------------------------------|

(Transition Two)
e|-------------------------------------------------------|
B|-------------------------------------------------------|
G|-4~----6~----7~----9~----4~----6~----7~----12~----11---|
D|-x-----x-----x-----x-----x-----x-----x------x------x---|
A|-2~----4~----5~----7~----2~----4~----5~----10~-----9---|
E|-------------------------------------------------------|

(Transition Three)
e|-----------------------------------------|
B|-----------------------------------------|
G|---------7--7-----------------------7----|
D|--4--4---x--x---5--x--7--7--5--4----x----|
A|--x--x---5--5---x--x--x--x--x--x----5----|
E|--2--2----------3--x--5--5--3--2---------|


(Verse Two Slide Guitar)
e|------------------------------------------------------------------------|
B|------------------------------------------------------------------------|
G|-/7-----------/9-------/12-11---7/9\7-6/7\6-4---4/6\4--/7---/12--11-\7--|
D|------------------------------------------------------------------------|
A|------------------------------------------------------------------------|
E|------------------------------------------------------------------------|

e|-------------------------------------------------------------------------|
B|-------------------------------------------------------------------------|
G|-7/9--------/12--11---7/9\7-6/7\6-4-----4/6\4--0-------------------------|
D|---------------------------------------------------4\2--0---(4\2\0)------|
A|-------------------------------------------------------------------------|
E|-------------------------------------------------------------------------|


(Bridge)
e|-------------------------------------------------------------------------|
B|-10h12p10--8h10p8--7h8p7--5h7p5--3~---10h12p10--8h10p8--7h8p7--5h7p5--3~-|
G|-------------------------------------------------------------------------|
D|-------------------------------------------------------------------------|
A|-------------------------------------------------------------------------|
E|-------------------------------------------------------------------------|

(Bridge Slide Guitar)
e|-(5)/9---------------14\(10)----------(5)/9--------------14\(10)---------|
B|-------------------------------------------------------------------------|
G|-------------------------------------------------------------------------|
D|-------------------------------------------------------------------------|
A|-------------------------------------------------------------------------|
E|-------------------------------------------------------------------------|

(Pre-Solo)
e|----------------------------|
B|----------------------------|
G|--------7--7---4--4---2--2--|
D|-4--4---7--7---4--4---2--2--|
A|-4--4---5--5---2--2---0--0--|
E|-2--2-----------------------|

(Wah Solo)
e|------------------------------------------------|
B|--10--10--10--7--7--7---------------------------|
G|-----------------------7--7--7--6h7h9-----------|
D|---------------------------------------7--7-----|
A|------------------------------------------------|
E|------------------------------------------------|

(Outro Keyboards)
e|---14-14-14--12-12-12---14-14-14--12-12-12---|
B|---------------------------------------------|
G|---------------------------------------------|
D|---------------------------------------------|
A|---------------------------------------------|
E|---------------------------------------------|

===============================================================================
            
Submit corrections

comments powered by Disqus
↑ Back to top | Built To Spill Tabs for Temporarily Blind. Lyrics for acoustic guitar and electric guitar. Tablatures and chords are parodies/interpretations of the original songs. You may use it for private study, scholarship, research or language learning purposes only