» » »

Reasons Chords (ver.1)

Artists:  A B C D E F G H I J K L M N O P Q R S T U V W X Y Z # 

Reasons Chords (ver.1)

Built To Spill
Rating:
4/5 (4 votes)

Hard to play? Try these video lessons and learn fast.
                ----------------------------------------------------------------------------
----------------------------------------------------------------------------


Tuning: standard

Chords used:
     D   A   E   B  F#m  F
e|---0---0---0---0---2---1--------------------------------------------------
B|---3---0---0---0---2---1--------------------------------------------------
G|---2---6---1---4---2---2--------------------------------------------------
D|---0---7---2---4---4---3--------------------------------------------------
A|---0---7---2---2---4---3--------------------------------------------------
E|-------5---0-------2---1--------------------------------------------------


D
 Come through me
A              E      D
You arrive and I'm on fire

Subdue me
A               E       D
To explode that you inspired

So groovily
A         E        D
Second episode all smiles

Let's make a movie
A              E
In the name of all great liars
B           D
Improvising Kaufman style

A      F#m      D
 They are all reasons to me
E      F#m      D
 They are all reasons to be
A      F#m      D
 They are all reasons to see
E      F#m      D
 They are all reasons to me

A  F#m  F

D
 How the hell do you do this?
A                  E           D
Change the colors, shapes, and size

I'm clueless
A               E    D
Not one thing I recognize

So foolish
A             E       D
Every now's a big surprise

Help me to get through this
A              E      
Stay with me until I die
        F#m          D
There's nothing else I wanna try

A      F#m      D
 They are all reaons to me
E      F#m      D
 They are all reasons to be
A      F#m      D
 They are all reasons to see
E      F#m      D
 They are all reasons to me

A  F#m  F  D

At this point Doug goes back and forth between A and E playing fills between each.
Sadly, I'm not as good as Doug and can't quite figure out what he's playing.
            
Hard to play? Try these video lessons and learn fast. | Correct




comments powered by Disqus
↑ Back to top | Tablatures and chords are parodies/interpretations of the original songs. You may use it for private study, scholarship, research or language learning purposes only