» » »

Built To Spill, Planting Seeds Tabs (ver.1)

Artists:  A B C D E F G H I J K L M N O P Q R S T U V W X Y Z # 

Planting Seeds Tabs (ver.1)

Built To Spill Tabs
 Rating:
4/5 (4 votes)
Planting Seeds lessons Tabs too difficult? Try these video lessons and learn fast
1
                
intro solo: (played through a boss oc-2 octaver and big muff)

e|-------10-----12---10---------------------------10---------------------10--|
B|12--12----12-----------12-12--10\--8---8/10--12----12-10-12---------12-----|
G|---------------------------------------------------------------------------|
D|---------------------------------------------------------------------------|
A|---------------------------------------------------------------------------|
E|---------------------------------------------------------------------------|

e|-----12---10--------------------------------------15-------------------------|
B|-12-----------12--12-12--10-12-10--12--12--15-15^----16^15-------------------|
G|-----------------------------------------------------------------------------|
D|-----------------------------------------------------------------------------|
A|-----------------------------------------------------------------------------|
E|-----------------------------------------------------------------------------|


e|------------15--12--------------------------------------------------10----12--|
B|--12-13-12---------13-12--10--12---10\8--------------------------------12-----|
G|----------------------------------------7/9-7--7-7\5-5\4--------/12-----------|
D|------------------------------------------------------------------------------|
A|------------------------------------------------------------------------------|
E|------------------------------------------------------------------------------|

             quickly
e|--10----------------12-------------------------------------------------------|
B|-----12-12-12-13-15---15-13-12-----------------------------------------------|
G|---------------------------------12\11--11\9--9/11-11h12---12----------------|
D|-----------------------------------------------------------------------------|
A|-----------------------------------------------------------------------------|
E|-----------------------------------------------------------------------------|

other parts
   G      Bm    C    D
e|-----------------------------------------------------------------------------|
B|-12~~------------------------------------------------------------------------|
G|--------11~~--12~~-----------------------------------------------------------|
D|-------------------12--------------------------------------------------------|
A|-----------------------------------------------------------------------------|
E|-----------------------------------------------------------------------------|

G              D                        Am
I'd hand it to time if I knew where the time had gone
           C   *             Em
the connoisseurs were wrong
              Am           C  Em   G
and so was everyone else


* two gtr parts
e|----------------------------|
B|----------------------------|
G|----------------------------|
D|----------------------------|
A|---3-3/--7------------------|
E|---10\---0----5-------------|

G                   D                          Am
I know what they're saying cuz that's all they talk about
  *          C            Em
just need to figure out
              Am         D
some sh*t for myself

*
e|----------------------------------------------------------------------------|
B|----------------------------------------------------------------------------|
G|--5-4-------/4---------------5-4--------------------------------------------|
D|-------7--5----5---5--------------7-----------------------------------------|
A|---------------------7------------------------------------------------------|
E|----------------------------------------------------------------------------|


*D                                              Am
and just because it's obvious doesn't mean it's even true
D                                                Am              (C)
heard it all and I believe that we deserve another point of view
*
e|--14-----14----14-----14----------------------------------------------|
B|----15----15-----15-----15--------------------------------------------|
G|------14----14-----14-----14------------------------------------------|
D|--------------------------------9h10p9-----9----------------------9---|
A|----------------------------------------12--(2nd time only)-10h12---10|
E|----------------------------------------------------------------------|
*
e|------------------------------------------------------------------------------|
B|---7~~--8~~--10~~-12~~----5~~7~~8~~10~~--7~~--8~~--10~~-12~~--5~~7~~8~~10~~8~~|
G|---7----7----9----11---------------------7----7----9----11--------------------|
D|------------------------------------------------------------------------------|
A|------------------------------------------------------------------------------|
E|------------------------------------------------------------------------------|


*                     G                              *two parts
we can make it if we try                             e|-----------------|
          D                         Am               B|---8---7--13-----|
and if we don't it's gonna still be alright          G|---7---7--12-----|
                                                     D|-----------------|
                                                     A|---10--9--7------|
                                                     E|-----------------|
        G         D     Am
cuz our minds are still alive
           G      D      Am  *                     *
and we can decide what's right                     e|---------------------|
                                                   B|---------------------|
G            D                     Am              G|---------------------|
make up your mind make up your own mythology       D|-10-9----------------|
          C          Em                            A|------12--9---9-12-9-|
afraid of finding me                               E|------------12-------|
       Am            C Em G
and of defining you

G             D                          Am
take what you want but you won't want it where you're at
            C *        Em
I know this for a fact                           *
                  Am        D                    e|---------------------|
just because it's so true                        B|---------------------|
                                                 G|---------------------|
                                                 D|---10-10-------------|
                                                 A|--9--9--9----x2------|
                                                 E|---------12----------|
D                                            Am
the first place my mind goes is where I never want it to
D                                                       Am
like where it hurts the most or all the stupid sh*t I say and do

                     G
we can make it if we try
          D                         Am
and if we don't it's gonna still be alright

        G         D     Am
cuz our minds are still alive
           G      D      Am
and we can decide what's right

C          Am                        G            D
telling me thousands of times what's next to want
C                Am                        G        D
just doing their job but you know that's a dirty job
C                Am                          G         D
can't stand this game still we're bullied to play along

D                  Am         D
when bullies grow up they get meaner
yeah they really get it down
oh yeah

G                    D                      Am
they think that they get it but they always get it wrong
                  C             Em
they'll play your favorite song
                  Am       C Em G
just to sell sh*t to you

G                       D                   Am
I've heard that they'll sell anything and I think they might
             C               Em
I think Bill Hicks was right
                  Am       D
about what they should do

D                                                    Am
and just because you love something doesn't mean it's yours to buy
D                                                 Am
been selling it so long that no one even knows the reason why

                             G
you've been messing with our minds
        D                Am
gettin' rich wasting our time

| /  slide up
| \  slide down
| h  hammer-on
| p  pull-off
| ~  vibrato
| +  harmonic
| x  Mute note
            
Submit corrections

comments powered by Disqus
↑ Back to top | Built To Spill Tabs for Planting Seeds. Lyrics for acoustic guitar and electric guitar. 1 Tablatures and chords are parodies/interpretations of the original songs. You may use it for private study, scholarship, research or language learning purposes only