>
 >
Mess With Time

Mess With Time Guitar Tabs

Built To Spill - Mess With Time chords, tabs, tablatures, lyrics

Guitar lessons | Add/correct | Request | Top 50 tabs Artists:  A B C D E F G H I J K L M N O P Q R S T U V W X Y Z 0-9

Mess With Time Guitar Tabs – Built To Spill

CD, Sheet music, Poster

Do you like Mess With Time? Share with your friends now
Tabs
chords/tab to The Built to Spill Time Trap, done by Hunter Harpole

e-----------------------------------------------------------------|
B--------5-------------4------------------------------------------|
G------------------------------------6--------5---5---------------|
D---6------6---6---6-----6---6---7--------7-----4---4---4 Repeat--| x4
A-7---7------7---7---7-----7--------------------------------------|
E------------------------------5---5----5---5---------5-----------|

       e-0---5---0-|
       B-0---5---5-|
Chords:G-1---6---5-|
       D-2---7---4-|
       A-2---7---0-|
       E-0---5---5-|

Main Continous Riff-takes practice.

e----------------------------------------------------|
B----------------------------------------------------|
G----------------------------------------------------|
D-2/1/2/6-6/2-2/1/2/6-6/2-2/1/2/1/2/1/2/6-6/2-2------|1/2/ And so on...
A----------------------------------------------------|
E----------------------------------------------------|

Chords when he sings - E...B...G#m...and repeat.

Lyrics:

Cause you could never know that___________

e---------------------5--5-5--5-5--5--5--5-|
B---------------------5--5-5--5-5--5--5--5-|
G---------------------6--6-8--8-9--9--9--9-|
D---------------------7--7-7--7-7--7--7--7-|
A---------------------7--7-7--7-7--7--7--7-|
E---------------------5--5-5--5-5--5--5--5-|

In A Time   Trap________________

e----9--9---9--9---9---9---9---9--|
B----9--9---9--9---9---9---9---9--|
G----9--9---9--9---9---9---9---9--|
D----11-11--13-13--14--14--14--14-|
A----11-11--13-13--14--14--14--14-|
E----9--9---9--9---9---9---9---9--|

In A Time Trap___________________

Last Chord - B -

The End!





Comments


Popular Built To Spill tabs & chords
Goin' Against Your Mind Bass Tabs
Done Chords
Else Chords
Hindsight Chords
Reasons Chords
Car 1 Tabs
Out Of Site Tabs
Traces 1 Tabs
Trimmed And Burning Tabs
You Were Right Tabs


Song lyrics



↑ Back to top | Tablatures and chords are parodies/interpretations of the original songs. You may use it for private study, scholarship, research or language learning purposes only
© 2014 AZChords.com Contact us | Privacy policy | DMCA | Add/correct tabs | Request tabs | Top 50 tabs