>
 >
Gone

Gone Guitar Tabs

Built To Spill - Gone chords, tabs, tablatures, lyrics

Guitar lessons | Add/correct | Request | Top 50 tabs Artists:  A B C D E F G H I J K L M N O P Q R S T U V W X Y Z 0-9

Gone Guitar Tabs – Built To Spill

CD, Sheet music, Poster

Do you like Gone? Share with your friends now
Bass TabsBass Tabs v2Tabs
-----------------------------------------------------------------------
			   “Gone” – Built to Spill
			   You in Reverse (2006)
-----------------------------------------------------------------------

Tuning: standard (eBGDAE)

Intro
There are two guitars in the intro. Guitar 1 is strumming the chords and guitar 2 is 
them with various hammer-ons and pull-offs.

These is the chord progression

Dm /// Am /// C /// G /// F ///

Here’s a sample of guitar 2. I obviously will not include every
nuance of the playing, but this represents the main feel. It can
Be played in a number of locations on the neck. Experiment!

       Dm (2x)          Am                  C
e|-----------------|-------------|------------------------|
B|-6~-6p5---5h6---6|-5-----------|--8--8--8--8--8--8------|
G|-7~----7-----7—-7|-5-5h7-7-7p5-|--9—-9h10-10-10-10p9----|
D|-7~-----7-----7-7|-7-7-7-7-7-7-|-10-10-10-10-10-10--10--|
A|-5~-------------5|-7-7-7-7-7-7-|-10-10-10-10-10-10---10-|
E|-----------------|-5-5-5-5-5-5-|--8--8--8--8--8--8------|
        G               F
e|-3---------------|---------||
B|-3--3-3-3-3-3----|-1-1-1-1-||
G|-4—-4h5-5-5-5p4--|-2-2-2-2-||
D|-5--5-5-5-5-5--5-|-3-3-3-3-||
A|-5--------------5|-3-3-3-3-||
E|-3---------------|-1-1-1-1-||

Then comes the solo

The first part uses a pretty heavy wah effect and is something to
The effect of:

e|-----------------------------------------------------------------|
B|-----------------------------------------------------------------|
G|----------------------------------------------------9-9-9\7-7-7\-|
D|-----------------------------------------------------------------|
A|-5~------7-7b-7b-7b-7br—5~---7-7b-7b-7b-7br-5-0~-5/7-------------|
E|-----------------------------------------------------------------|

e|--------------------------------|
B|--------------------------------|
G|-5-5-5-7b9----------------------|
D|-----------5~-------------------|
A|--------------2b3r2b3r2b3r2-----|
E|----------------------------3-1~|


Next comes the little clean solo:

e|--------------------------------------------------------|
B|-15~---15-17-18-17-15--15--------15~----15-14-13-12-10~-|
G|-14~-----------------17--17—14h17-------14-13-12-11—-9~-|
D|-15~------------------------------------15-14-13-12-10~-|
A|--------------------------------------------------------|
E|--------------------------------------------------------|

e|------------------------------------------------------------|
B|-10---10-12-13-12-10--10-------10~--------------------------|
G|--------------------12--12-9h12---9h10h12-10p9--9-----------|
D|----------------------------------------------12—12-10-9—-9-|
A|---------------------------------------------------------10-|
E|------------------------------------------------------------|

e|---------------------|
B|---------------------|
G|---------------------|
D|--9h10-10-10--9------|
A|-10-10-10-10-10-10-8-|
E|---------------------|

Next comes the bridge with the slide guitar

Below is the progression with the rhythm/slide composite below.


   C      Em      G      F        D(sus4)         F        G
e|------------------------------------------------------------------|
B|\5-5-----\12---\12-\10---\10---7--7—-7h8p7------10------12--------|
G|\5--5------12--\12-\-10--\10---7--7--7----7------10------12-------|
D|\5---5------12-\12-\--10-\10---7-0--0------7------10------12------|
A|\3-----------------------------5--------------\8-----\10----------|
E|-------\12--------------------------------------------------------|

Or you can separate it into two guitars

Guitar 1
e|-------------7---7\5---5------------------------------------------|
B|-5-5----8-----8—-8--6--6-------7---7h8p7------10------12----------|
G|----5---9-9----7-7---5-5-------7---7----7------10------12---------|
D|-----5--9--9-----------------7-----------7------10------12--------|
A|-3-----/7------------------\5----5----------\8-----\10------------|
E|------------------------------------------------------------------|

Guitar 2 (slide)
e|------------------------------------------------------------------|
B|-\5----\12--\12-\10----------\7---\7h8p7------\10----\12----------|
G|-\-5---\12----12--10---------\7---\7---\7-----\10----\12----------|
D|-\--5--\12-----12--10-------------------\7----\10----\12----------|
A|------------------------------------------------------------------|
E|------------------------------------------------------------------|



Then comes the chords (hit each one, then hold)

    Am  G   Dm

e|---------------|
B|----------5~---|
G|--5~--4~--7~---|
D|--7~--5~--7~---|
A|--7~--5~--5~---|
E|--5~--3~-------|

Do this a bunch of times (I didn’t count).

Then comes the riff (you’ll hear when to alternate between)

Riff A
e|-------------|----------------||
B|-------------|----------------||
G|-------------|----------------||
D|-----2-0-----|-----2-0-----/5-||
A|-1-1-----1-1-|-1-1-----1-1----||
E|-------------|----------------||

Then chords

F         C

Then back to Riff A


Then the outro where there could are 2/3 guitars (I will write 2)

Guitar 1
e|-12-13~-12-13---------|
B|-13-13~-13-13-13-11---|
G|-14-14~-14-14-12-12---|
D|--------------14-14---|
A|----------------------|
E|----------------------|

Guitar 2
e|----------------------|
B|----------------------|
G|-9-10~--9-10----------|
D|-7--7~--7--7-10--8----|
A|-8--8~--8--8--8--8----|
E|----------------------|

| /  slide up
| \  slide down
| h  hammer-on
| p  pull-off
| ~  vibrato
| +  harmonic
| x  Mute note
=======================================================================





Comments


Popular Built To Spill tabs & chords
Carry The Zero Bass Tabs
In Your Mind Chords
Nowhere Nothin' Fuckup Chords
The Source Chords
Twin Falls Idaho Chords
Carry The Zero 1 Tabs
Linus And Lucy Tabs
Rearrange Tabs
Three Years Ago Today Tabs
Car Ukulele


Song lyrics



↑ Back to top | Tablatures and chords are parodies/interpretations of the original songs. You may use it for private study, scholarship, research or language learning purposes only
© 2014 AZChords.com Contact us | Privacy policy | DMCA | Add/correct tabs | Request tabs | Top 50 tabs